» » »

Theme Song, King Of The Hill Tabs (ver.3)

Artists:  A B C D E F G H I J K L M N O P Q R S T U V W X Y Z # 

King Of The Hill Tabs (ver.3)

Theme Song Tabs
 Rating:
4/5 (4 votes)
King Of The Hill lessons Tabs too difficult? Try these video lessons and learn fast
                King of the Hill theme
Standard tuning

e------------------------------------------------------------------------------------
B------------------------------------------------------------------------------------
G------------------------------------------------------------------------------------
D-22222222--777--11--9--22222222--77-66-4-5-4--22222222--777-11-9------------------
A-22222222--777--11--9--22222222--77-66-4-5-4--22222222--777-11-9------------------
E-00004000--555--9---7--00004000--55-44-2-3-2--00004000--555-9--7------------------

continued

e------------------------------------------------------------------------------------
B------------------------------------------------------------------------------------
G--99--------------------------------------------------------------------------------
D--99-99-77-66-44-55-2x--------------------------------------------------------------
A--77-99-77-66-44-55-2x--------------------------------------------------------------
E-----77-55-44-22-33-0x--------------------------------------------------------------

Then this little riff thing:

e------------------------------------------------------------------------------------
B------------------------------------------------------------------------------------
G-6666-------------------------------------------------------------------------------
D-6666-6666-7777--99-77-66-4---------------------------------------------------------
A-4444-6666-7777--99-77-66-4---------------------------------------------------------
E------4444-5555--77-55-44-2---------------------------------------------------------

back to this:

e------------------------------------------------------------------------------------
B------------------------------------------------------------------------------------
G------------------------------------------------------------------------------------
D-22222222--777-11-9-----------------------------------------------------------------
A-22222222--777-11-9-----------------------------------------------------------------
E-00004000--555-9--7-----------------------------------------------------------------

then the outro:

e------------------------------------------------------------------------------------
B------------------------------------------------------------------------------------
G-99-------------------99------------------------------------------------------------
D-99-99-77-66-44-55-2--99------------------------------------------------------------
A-77-99-77-66-44-55-2--77------------------------------------------------------------
E----77-55-44-22-33-0----------------------------------------------------------------

(IM 99.9% SURE THIS IS CORRECT!)
            
Submit corrections

comments powered by Disqus
↑ Back to top | Theme Song Tabs for King Of The Hill. Lyrics for acoustic guitar and electric guitar. Tablatures and chords are parodies/interpretations of the original songs. You may use it for private study, scholarship, research or language learning purposes only