» » »

Jurassic Park Bass tabs (ver.1)

Artists:  A B C D E F G H I J K L M N O P Q R S T U V W X Y Z # 

Jurassic Park Bass tabs (ver.1)

Theme Song
Rating:
0/5 (0 votes)
Tabs too difficult? Try these video lessons and learn fast.
                THIS IS  100% CORRECT. PLAY IT SLOW AND EASY.

G--7--6--7---7--6--7--7--6--7--99--1212-----------------------------------------
D----------------------------------------------------------------
A----------------------------------------------------------------
E----------------------------------------------------------------

G---12------10---9---7----12----10--9--7----12----10---99---77---3-----------------
D-------10--------------------10---------------10----------------------
A----------------------------------------------------------------
E----------------------------------------------------------------

G---3--2--3---------3--2--3---------3223-----------------------------------
D------------3--1------------3--1---------3--1---4---------------------
A----------------------------------------------------------------
E----------------------------------------------------------------
            
Tabs too difficult? Try these video lessons and learn fast.


comments powered by Disqus
↑ Back to top | Tablatures and chords are parodies/interpretations of the original songs. You may use it for private study, scholarship, research or language learning purposes only