» » »

James Bond Bass tabs (ver.2)

Artists:  A B C D E F G H I J K L M N O P Q R S T U V W X Y Z # 

James Bond Bass tabs (ver.2)

Theme Song
Rating:
0/5 (0 votes)

Hard to play? Try these video lessons and learn fast.
                this is a cool song,please rate this tab.

G:0-2222-0000-3333-0000-2222-0000-3333-000
D:----------------------------------------
A:----------------------------------------
E:----------------------------------------

G:------------------------
D:-2-0--------------------
A:------2-0-2-------------
E:-------------3-2-321----

G:------------------------}
D:------------------------}
A:-22-2434-55-5434--------}X2
E:------------------------}

G:66--66--66-66-----------
D:-------------7----------
A:--8---8-----------------
E:------------------------
            
Hard to play? Try these video lessons and learn fast. | Correct




comments powered by Disqus
↑ Back to top | Tablatures and chords are parodies/interpretations of the original songs. You may use it for private study, scholarship, research or language learning purposes only