» » »

Theme Song, James Bond Bass tabs (ver.3)

Artists:  A B C D E F G H I J K L M N O P Q R S T U V W X Y Z # 

James Bond Bass tabs (ver.3)

Theme Song Tabs
 Rating:
4/5 (4 votes)
James Bond lessons Tabs too difficult? Try these video lessons and learn fast
                James Bond Theme 
Originally performed by the Monty Norman orchestra

I just had to do this tab after seeing everyone do it so wrong.
Standard Tuning (E,A,D,G)

~ = hold note

Low Intro notes (or an octave lower if you play a 5 string)
G---------------------
D---------------------
A----2~~-----2~~------
E---------------------

Background (appears only in ochestral version)
G--------------
D--------------
A-2~~3~~4~~3~~-
E--------------

Main Riff (this is the part everyone recognizes)
Should be played in this octave if used as a lead.  If used as support play an octave lower.
G--------------------------------------------------------------
D-2-4444-2222-5555-444-2-4444-2222-5555-444-2-4444-2222-5555---
A--------------------------------------------------------------
E--------------------------------------------------------------

G-------8-7~-4-2-4~-
D-4-3-2-------------
A-------------------
E-------------------

Other part (only in ochestral version)
G-----------------------
D-----------------------
A-3-3-35-35-6-6-6-5-3-5-
E-----------------------

That’s it. This tab is 100% correct.
            
Submit corrections

comments powered by Disqus
↑ Back to top | Theme Song Bass for James Bond. Lyrics for acoustic guitar and electric guitar. Tablatures and chords are parodies/interpretations of the original songs. You may use it for private study, scholarship, research or language learning purposes only