>
 >
Inspector Gadget 1

Inspector Gadget 1 Bass Tabs

Theme Song - Inspector Gadget 1 chords, tabs, tablatures, lyrics

Guitar lessons | Add/correct | Request | Top 50 tabs Artists:  A B C D E F G H I J K L M N O P Q R S T U V W X Y Z 0-9

Inspector Gadget 1 Bass Tabs – Theme Song

CD, Sheet music, Poster

Do you like Inspector Gadget 1? Share with your friends now
Bass TabsBass Tabs v2
(Tab submited by Rafael Gonzalez y Diego Amat)

|---------------------------------------|
|----------------------------------3-2--|
|---------0-2---1--0-----------0-2------|
|---0-2-3-----3-2---2---0-2-3----------|

|---------------------------------------|
|----------------------------------3-2--|
|---------0-2---1--0-----------0-2------|
|---0-2-3-----3-2---2---0-2-3----------|


|---------------------------------------|
|----------------------------------3-2--|
|---------0-2---1--0-----------0-2------|
|---0-2-3-----3-2---2---0-2-3----------|

Si no te sale esto es porque tas en verga.





Comments


Popular Theme Song tabs & chords
Batman 2 Bass Tabs
Chips Ahoy Theme Song Bass Tabs
Happy Birthday To You Bass Tabs
Meow Mix Theme Bass Tabs
Mission Impossible 1 Bass Tabs
Summer Lovin 1 Bass Tabs
Summer Nights Bass Tabs
The Simpsons 1 Bass Tabs
The Terminator Bass Tabs
Bbc Snooker Theme - Drag Racer Tabs


Song lyrics



↑ Back to top | Tablatures and chords are parodies/interpretations of the original songs. You may use it for private study, scholarship, research or language learning purposes only
© 2014 AZChords.com Contact us | Privacy policy | DMCA | Add/correct tabs | Request tabs | Top 50 tabs