» » »

Inspector Gadget Bass tabs (ver.2)

Artists:  A B C D E F G H I J K L M N O P Q R S T U V W X Y Z # 

Inspector Gadget Bass tabs (ver.2)

Theme Song
Rating:
0/5 (0 votes)

Hard to play? Try these video lessons and learn fast.
                (Tab submited by Rafael Gonzalez y Diego Amat)

|---------------------------------------|
|----------------------------------3-2--|
|---------0-2---1--0-----------0-2------|
|---0-2-3-----3—-2---2---0-2-3----------|

|---------------------------------------|
|----------------------------------3-2--|
|---------0-2---1--0-----------0-2------|
|---0-2-3-----3—-2---2---0-2-3----------|


|---------------------------------------|
|----------------------------------3-2--|
|---------0-2---1--0-----------0-2------|
|---0-2-3-----3—-2---2---0-2-3----------|

Si no te sale esto es porque tas en verga.
            
Hard to play? Try these video lessons and learn fast. | Correct




comments powered by Disqus
↑ Back to top | Tablatures and chords are parodies/interpretations of the original songs. You may use it for private study, scholarship, research or language learning purposes only