» » »

Theme Song, Indiana Jones Bass tabs (ver.1)

Artists:  A B C D E F G H I J K L M N O P Q R S T U V W X Y Z # 

Indiana Jones Bass tabs (ver.1)

Theme Song Tabs
 Rating:
4/5 (4 votes)
Indiana Jones lessons Tabs too difficult? Try these video lessons and learn fast
                (Theme)
Listen to the movies for timing

G|---------------------------------------------------------|
D|-------5------------------5-------------------5--7-9-10--|
A|-0-2-3------0-2-3---0-2-3---2-3-5-7-9---0-2-3------------|
E|---------------------------------------------------------|

G|-------------------------------------|
D|---4-5--4---0-5--4---0-5--4----------|
A|-2----------------------------2-3-0--|
E|-------------------------------------|
            
Submit corrections

comments powered by Disqus
↑ Back to top | Theme Song Bass for Indiana Jones. Lyrics for acoustic guitar and electric guitar. Tablatures and chords are parodies/interpretations of the original songs. You may use it for private study, scholarship, research or language learning purposes only