» » »

Hockey Night In Canada Bass tabs (ver.3)

Artists:  A B C D E F G H I J K L M N O P Q R S T U V W X Y Z # 

Hockey Night In Canada Bass tabs (ver.3)

Theme Song
Rating:
0/5 (0 votes)

Hard to play? Try these video lessons and learn fast.
                (Theme)
Hockey Night in Canada Theme Song
This is my first tab posting but I know this is right


G------------------------------------2-20-------------------------------------
D--------3-31----------3-31------2-2---------------------------------------------
A-----3-3-----------3-3----------------------------------------------------------
E--------------------------------------------------------------------------------

(yes that is a twelve, fourteen etc)
G----0005-2-12------0005-2-1412-----5559-12-14-151410-12-13128-12----------------
D--------------------------------------------------------------------------------
A--------------------------------------------------------------------------------
E--------------------------------------------------------------------------------

Play all that twice but with this as the second line for the ending 

G----0005-2-12------0005-2-1412-----5559-12-14-151410-12-13128-12-1215-1516-17-5-
D--------------------------------------------------------------------------------
A--------------------------------------------------------------------------------
E--------------------------------------------------------------------------------
            
Hard to play? Try these video lessons and learn fast. | Correct




comments powered by Disqus
↑ Back to top | Tablatures and chords are parodies/interpretations of the original songs. You may use it for private study, scholarship, research or language learning purposes only