» » »

Theme Song, Himno Nacional De La Republica De Colomb Tabs (ver.1)

Artists:  A B C D E F G H I J K L M N O P Q R S T U V W X Y Z # 

Himno Nacional De La Republica De Colomb Tabs (ver.1)

Theme Song Tabs
Rating:
0/5 (0 votes)
Himno Nacional De La Republica De Colomb lessons Tabs too difficult? Try these video lessons and learn fast
                Himno nacional de la republica de colombia.

Intro:

E:----------------------------------------------------------------------------------------------------------------------------
B:-----------------0--3-0--3333333-5-3-1-----------------------------1--5--1-------3-33-5-3----1-11-3-1---0-000
G:--0-000-----0------------------------------22222----2-222------2----------------------------------------------------
D:------------0------------------------------------------------------2-------------------------------------------------------
A:----------------------------------------------------------------------------------------------------------------------------
E:----------------------------------------------------------------------------------------------------------------------------


Verse:


E:------------------------------------------------------------
B:--0-1-33--5-3-1--3-0----------3------------------------
G:---------------------------0-2-4----5-2-0----------------
D:------------------------------------------------------------
A:------------------------------------------------------------
E:------------------------------------------------------------

E:------------------------------------------------------------
B:-0-1-33--5-3-1--3-0-------33--2-3-5---3-5-7---------
G:------------------------------------------------------------
D:------------------------------------------------------------
A:------------------------------------------------------------
E:------------------------------------------------------------

E:---------------------------------3333333-2-0-2-----0000000-------------------
B:-7-5-3-1-3-1-0-----------------------------------0---------------3-2-3----------
G:------------------0-00000---------------------------------------------------------
D:--------------------------------------------------------------------------------------
A:--------------------------------------------------------------------------------------
E:--------------------------------------------------------------------------------------

E:------------------3-2-0------2-3----------------------------------
B:--0--------3-----------------------0-----5-3-----------------------
G:----0--------4---------------------------------2----5-4-0---------
D:---------------------------------------------------------------------
A:---------------------------------------------------------------------
E:----------------------------------------------------------------------




Este es el himno de mi tierra que transcribi con orgullo esperando salir adelante, paz para todos.

El parko.

This is the anthem of my country (colombia) that i tabbed  whit proud waiting for better times,peace for everyone. 

El parko
            

comments powered by Disqus
↑ Back to top | Theme Song Tabs for Himno Nacional De La Republica De Colomb. Lyrics for acoustic guitar and electric guitar. Tablatures and chords are parodies/interpretations of the original songs. You may use it for private study, scholarship, research or language learning purposes only