» » »

Good Bass Exercice Bass tabs (ver.1)

Artists:  A B C D E F G H I J K L M N O P Q R S T U V W X Y Z # 

Good Bass Exercice Bass tabs (ver.1)

Theme Song
Rating:
0/5 (0 votes)

Tabs too difficult? Try these video lessons and learn fast.
                I know this isnt a theme song but 
it’s a really good exercice to 
muscle other fingers apart from the index


   1 2 3 4 1 2 3 4 1 2 3 4 1 2 3 4 
G:-------------------------3-4-5-6—|
D:-----------------3-4-5-6---------|
A:---------3-4-5-6-----------------|
E:-3-4-5-6-------------------------|


   4 3 2 1 4 3 2 1 4 3 2 1 4 3 2 1
G:-6-5-4-3-------------------------|
D:---------6-5-4-3-----------------|
A:-----------------6-5-4-3---------|
E:-------------------------6-5-4-3-|

1=index  finger
2=middle finger
3=ring finger
4=pinky

reapeat it faster and faster 
and faster until ur a pro at it. Do 
about 10 min a day then after a week or two,
it will be extreamly easier to play with other 
songs example Nirvana. It makes you go faster 
and use all fingers.

To see if your good at using your other fingers, 
practice on this:

   1   4 1 2 1 2 2 1 4 2 4   1   4 1 2 1 2 3 2   2
G:-------------------------|-----------------------|
D:---0-4-------------------|---0-4-----------------|
A:-2-------------5-4-7-5-7-|-2-------------3-2-0---|
E:-------2-3-2-3-----------|-------2-3-2-3-------3-|

-Lounge Act-Nirvana-Nevermind-Track 9

Thats it,
-flip
-lebassiste
            
Tabs too difficult? Try these video lessons and learn fast.




comments powered by Disqus
↑ Back to top | Tablatures and chords are parodies/interpretations of the original songs. You may use it for private study, scholarship, research or language learning purposes only