» » »

Theme Song, German National Anthem Bass tabs (ver.1)

Artists:  A B C D E F G H I J K L M N O P Q R S T U V W X Y Z # 

German National Anthem Bass tabs (ver.1)

Theme Song Tabs
 Rating:
4/5 (4 votes)
German National Anthem lessons Tabs too difficult? Try these video lessons and learn fast
                
G|-----------------------4-2-----------2----|
D|-------2-4-2-5-4-2---------5-4-2-4--------|  2x
A|-----5-------------4-5-------------5------|
E|------------------------------------------|

G|-------------------------2-----------2-2--|
D|-----2-4-2-----5-4-2-------5-4-4-6-6------|
A|-----------4---------4--------------------|
E|-------------5---------5------------------|

G|-----7-6-6-4-2-4-2-2-----------2-4--------------|
D|---------------------5-4-2-4-5-----5-2---4-2----|2x
A|---------------------------------------5-----5--|
E|------------------------------------------------|
            
Submit corrections

comments powered by Disqus
↑ Back to top | Theme Song Bass for German National Anthem. Lyrics for acoustic guitar and electric guitar. Tablatures and chords are parodies/interpretations of the original songs. You may use it for private study, scholarship, research or language learning purposes only