» » »

Crank Yankers Tabs (ver.1)

Artists:  A B C D E F G H I J K L M N O P Q R S T U V W X Y Z # 

Crank Yankers Tabs (ver.1)

Theme Song
Rating:
0/5 (0 votes)

Hard to play? Try these video lessons and learn fast.
                Theme Song - Crank Yankers

All the versions I saw were wrong so I typed this up


e|-----------------|
B|-----------------|
G|------5----------|
D|-5----5----------|
A|-5----3x10-------|
E|-3x10------------|x2

e|-----------------|
B|-----------------|
G|----5------------|
D|-2--5------------|
A|-2--3x5----------|
E|-0x5-------------|x2

e|-----------------|
B|-----------------|
G|------5----------|
D|-5----5----------|
A|-5----3x10-------|
E|-3x10------------|
            
Hard to play? Try these video lessons and learn fast. | Correct




comments powered by Disqus
↑ Back to top | Tablatures and chords are parodies/interpretations of the original songs. You may use it for private study, scholarship, research or language learning purposes only