» » »

Chips Ahoy Theme Song Bass

Artists:  A B C D E F G H I J K L M N O P Q R S T U V W X Y Z # 

Chips Ahoy Theme Song Bass

(ver. 1)
Theme Song Tabs
 Rating:
4/5 (4 votes)
    Chips Ahoy Theme Song lessons Tabs too difficult? Try these video lessons and learn fast
                G---------------------------------------------------------
D---------------------------------------------------------
A-------0-2--2--1--1---0--0-------------------------------
E--0-2-3----3-----2------1--------------------------------

G---------------0-3-----0---------------------------------
D-----------------3-0-3-----------------------------------
A--------0-2--3-------------------------------------------
E--0-2-3-----3--------------------------------------------
            
Submit corrections

↑ Back to top | Theme Song Bass for Chips Ahoy Theme Song. Lyrics for acoustic guitar and electric guitar. Tablatures and chords are parodies/interpretations of the original songs. You may use it for private study, scholarship, research or language learning purposes only