» » »

Chinese Bass tabs (ver.1)

Artists:  A B C D E F G H I J K L M N O P Q R S T U V W X Y Z # 

Chinese Bass tabs (ver.1)

Theme Song
Rating:
0/5 (0 votes)

Hard to play? Try these video lessons and learn fast.
                (Theme)
ok i gotta make it long enough so sry for all the extra stuff


G|-8-8-8-8--6-6--3-3--6*
D|----------------------
A|----------------------
E|----------------------

G|-8-8-8-8--6-6--3-3--6*
D|----------------------
A|----------------------
E|----------------------

G|-8-8-8-8--6-6--3-3--6*
D|----------------------
A|----------------------
E|----------------------

G|-8-8-8-8--6-6--3-3--6*
D|----------------------
A|----------------------
E|----------------------

G|-8-8-8-8--6-6--3-3--6*
D|----------------------
A|----------------------
E|----------------------

G|-8-8-8-8--6-6--3-3--6*
D|----------------------
A|----------------------
E|----------------------

G|-8-8-8-8--6-6--3-3--6*
D|----------------------
A|----------------------
E|----------------------

G|-8-8-8-8--6-6--3-3--6*
D|----------------------
A|----------------------
E|----------------------

G|-8-8-8-8--6-6--3-3--6*
D|----------------------
A|----------------------
E|----------------------

G|-8-8-8-8--6-6--3-3--6*
D|----------------------
A|----------------------
E|----------------------

G|-8-8-8-8--6-6--3-3--6*
D|----------------------
A|----------------------
E|----------------------

G|-8-8-8-8--6-6--3-3--6*
D|----------------------
A|----------------------
E|----------------------

ok thats all 
please rate it

thanks
            
Hard to play? Try these video lessons and learn fast. | Correct




comments powered by Disqus
↑ Back to top | Tablatures and chords are parodies/interpretations of the original songs. You may use it for private study, scholarship, research or language learning purposes only