» » »

Bottom Bass tabs (ver.1)

Artists:  A B C D E F G H I J K L M N O P Q R S T U V W X Y Z # 

Bottom Bass tabs (ver.1)

Theme Song
Rating:
0/5 (0 votes)

Hard to play? Try these video lessons and learn fast.
                (Theme)
g|---------------------------------------------:
d|---------------------------------------------:
a|---------3-3-5-3-----------------------------:   X2
e|--0-0-4-5------------------------------------:

g|---------------------------------------------:
d|---------3-3-5-3-----------------------------:
a|--0-0-4-5------------------------------------:
e|---------------------------------------------:
            
Hard to play? Try these video lessons and learn fast. | Correct




comments powered by Disqus
↑ Back to top | Tablatures and chords are parodies/interpretations of the original songs. You may use it for private study, scholarship, research or language learning purposes only