» » »

Theme Song, Beverly Hills Cop Bass tabs (ver.3)

Artists:  A B C D E F G H I J K L M N O P Q R S T U V W X Y Z # 

Beverly Hills Cop Bass tabs (ver.3)

Theme Song Tabs
 Rating:
4/5 (4 votes)
Beverly Hills Cop lessons Tabs too difficult? Try these video lessons and learn fast
1
                (Theme)
Main Part
G|---------------------------------------------9--------------|
D|-----5-------7-----------9-------10-9------9----------------|
A|-7-------7-7---7-5---7-------7-7------10-7------7-5-5---9-7-|
E|------------------------------------------------------7-----|
 
Little Solo (4-String - 1 ocatave higher)
G|-----9---7-7-----7-----9-------7-9-----5---7-7---7---9\---7--------|
D|-------------9-9-----------9-9-----------------9---9--------9-7----|
A|-7-----------------7---------------3----------------------------10-|
E|-------------------------------------------------------------------|
 
Little Solo (5-String - original)
G|------------------------------------------------------------------|
D|------------------------------------------------------------------|
A|-----7---5-5-----5-----7-------5-7-----3---5-5---5---7\---5-2-----|
E|-0-----------7-7---0-------7-7-----------------7---7----------5-3-|
B|-----------------------------------1------------------------------|
            
Submit corrections

comments powered by Disqus
↑ Back to top | Theme Song Bass for Beverly Hills Cop. Lyrics for acoustic guitar and electric guitar. 1 Tablatures and chords are parodies/interpretations of the original songs. You may use it for private study, scholarship, research or language learning purposes only