>
 >
Bbc Snooker Theme - Drag Racer

Bbc Snooker Theme - Drag Racer Guitar Tabs

Theme Song - Bbc Snooker Theme - Drag Racer chords, tabs, tablatures, lyrics

Guitar lessons | Add/correct | Request | Top 50 tabs Artists:  A B C D E F G H I J K L M N O P Q R S T U V W X Y Z 0-9

Bbc Snooker Theme - Drag Racer Guitar Tabs – Theme Song

CD, Sheet music, Poster

Do you like Bbc Snooker Theme - Drag Racer? Share with your friends now
Tabs
BBC Snooker Theme - Drag Racer

What a tune to pick for my first tab. Where ever i've 
looked i never ever found this song's transcription so 
i thought i'd get my finger out and do it myself... Enjoy.

h = hammer on
p = pull off
^ = bend

Section A:

e|----------------3--2--------|-----|
B|----------------3--3-2------|-----|
G|----------------4--2-2------|-----|  Repeat 
D|--5h7-7-7h9p7---5--0-2--777-|-5h7-|    x3
A|-7-----7-----9--5----0--777-|-----|
E|----------------3-------555-|-----|

Section B:

e|----------------------------|
B|----------------------------|
G|-----------------------3----|
D|-2-2-2-1-0-----------3-3-2--|
A|-2---------3--2-0----3-1-2--|
E|-0----------------3--1---0--|


e|----------------------------------------------3--2----|
B|----------------------------------------------3--3-2--|
G|----------------------------------------------4--2-2--|
D|-----------------------------7--9^<10>^9p7----5--0-2--|
A|-------0h2p0---0---------7-9---------------9--5----0--|
E|-0-0h2-------2-----7-8-9----------------------3-------|


Section C: 

(Sort of fast solo part)

e|------------------------------------------------------------|
B|-----10----10----10----10----10----10----10----10----10-10--|
G|-9h11--9h11--9h11--9h11--9h11--9h11--9h11--9h11--9h11-------|
D|------------------------------------------------------------|
A|------------------------------------------------------------|
E|------------------------------------------------------------|


e|--------12------------------------------|
B|-12^<14>---<14>^12p10--------10-12-10---|
G|------------------------9-11------------|
D|----------------------------------------|
A|----------------------------------------|
E|----------------------------------------|

e|----------------------------------------------|
B|--12p10-12^<14>-<14>^12p10--------10h12p10----|
G|------------------------------8-9-------------|
D|----------------------------------------------|
A|----------------------------------------------|
E|----------------------------------------------|

(Now Repeat Section B)

Section D: (Palm Muted)

e|-----------------------|
B|-----------------------|
G|-----------------------|  Repeat
D|-0h2-2--2--2-2-2--2-0--|    x6
A|-0h2-2--2--2-2-2--2-0--|
E|-0---0--0--0-0-0--0-0--|


e|------|
B|------|
G|------|  (and then rest of
D|-5h7--|  Sections A and B)
A|------|
E|------|


(Now Repeat Section D 3 times)

Closing Sequence:

e|------2-2-2-----|
B|-2-2--3-3-3--2--|
G|-2-2--3-3-3--2--|
D|-2-2--0-0-0--2--|
A|-0-0---------2--|
E|----------------|

Hope you enlighten your family and friends with this classic theme tune.

By Luke Evans :)





Comments


Popular Theme Song tabs & chords
007 1 Bass Tabs
007 Or Mission Impossible Bass Tabs
Basic Major Scale Bass Tabs
James Bond 2 Bass Tabs
Knight Rider Theme Bass Tabs
Pink Panther 2 Bass Tabs
Summer Nights Bass Tabs
Tales From The Crypt Bass Tabs
The Terminator Bass Tabs
Pink Panther Theme Song Tabs


Song lyrics



↑ Back to top | Tablatures and chords are parodies/interpretations of the original songs. You may use it for private study, scholarship, research or language learning purposes only
© 2014 AZChords.com Contact us | Privacy policy | DMCA | Add/correct tabs | Request tabs | Top 50 tabs