» » »

Theme Song, Basic Major Scale Bass tabs (ver.1)

Artists:  A B C D E F G H I J K L M N O P Q R S T U V W X Y Z # 

Basic Major Scale Bass tabs (ver.1)

Theme Song Tabs
Rating:
0/5 (0 votes)
Basic Major Scale lessons Tabs too difficult? Try these video lessons and learn fast
                G:---------------------------------
D:-------2-3-2-----------2-3-2-----
A:---2-5-------5-2---2-5-------5-2-
E:-3---------------3---------------

G:-------2-3-2---------------------
D:---2-5-------5-2-------2-3-2-----
A:-3-----------------2-5-------5-2-
E:-----------------3---------------

G:---------------------------------|
D:---4-6-4---2-4-2-------2-5-------|
A:-5-------3---------2-5-----3-4-5-|
E:-----------------3---------------|
            

comments powered by Disqus
↑ Back to top | Theme Song Bass for Basic Major Scale. Lyrics for acoustic guitar and electric guitar. Tablatures and chords are parodies/interpretations of the original songs. You may use it for private study, scholarship, research or language learning purposes only