» » »

Bamse Bass tabs (ver.1)

Artists:  A B C D E F G H I J K L M N O P Q R S T U V W X Y Z # 

Bamse Bass tabs (ver.1)

Theme Song
Rating:
0/5 (0 votes)

Hard to play? Try these video lessons and learn fast.
                G ---------------------------------------
D -------5-3-1-0-------------------------
A ---1-3---------3-1-----3---1-3-1-0-1-3-
E -1-----------------1-3---1-------------
                               (--------)
Det där sl*tet är ganska så osäkert, du får lista ut det själv om du vill.
The ending is not shure but you can figure it out by your self.

G -------------------------------------------------------------------
D -------------------------------------------------------------------
A -5-5-5-5-5-5-5-5-3-3-3-3-3-3-3-3-1-1-1-1-1-1-1-1-1-1-1-1-3-1-0-1-3-
E -------------------------------------------------------------------

Spela sången hur du vill, har inte hört den på många år så det fattas 
säkert en hel del.
Play this song how you want, i haven´t heard this song for a while
so some part is certainly missing.
            
Hard to play? Try these video lessons and learn fast. | Correct




comments powered by Disqus
↑ Back to top | Tablatures and chords are parodies/interpretations of the original songs. You may use it for private study, scholarship, research or language learning purposes only