» » »

Theme Song, Awexsome Cross Bass tabs (ver.1)

Artists:  A B C D E F G H I J K L M N O P Q R S T U V W X Y Z # 

Awexsome Cross Bass tabs (ver.1)

Theme Song Tabs
Rating:
0/5 (0 votes)
Awexsome Cross lessons Tabs too difficult? Try these video lessons and learn fast
                Source: homestarrunner.com, monster truck e-mail, easter egg at end (click on the first "sunday" under The Paper)
Tuning: Drop D
Time Signature: 4/4

This is hardly a song; its really just a four measure riff with four
different notes. It is played with moderate distortion, palm muted
the whole way through.

Notation:
E = Eighth note
T = Thirty-second note
|-----P.M.-----| = Palm Mute

  E   TTTTE   TTTTE   TTTTE   TTTT   E   TTTTE   TTTTE   TTTTE   TTTT
E----------------------------------|----------------------------------|
B----------------------------------|----------------------------------|
G----------------------------------|----------------------------------|
D----------------------------------|----------------------------------|
A----------------------------------|-1---11111---11110---00000---0000-|
D-0---00000---00003---33333---3333-|----------------------------------|

  E   TTTTE   TTTTE   TTTTE   TTTT   E   TTTTE   TTTTE   E   E   E
E----------------------------------|----------------------------------|
B----------------------------------|----------------------------------|
G----------------------------------|----------------------------------|
D----------------------------------|----------------------------------|
A----------------------------------|-1---11111---11110---0---0---0----|
D-0---00000---00003---33333---3333-|----------------------------------|
 |--------------------------------P.M.-------------------------------|
            
Submit corrections

comments powered by Disqus
↑ Back to top | Theme Song Bass for Awexsome Cross. Lyrics for acoustic guitar and electric guitar. Tablatures and chords are parodies/interpretations of the original songs. You may use it for private study, scholarship, research or language learning purposes only