» » »

The Menzingers, So It Goes Tabs (ver.1)

Artists:  A B C D E F G H I J K L M N O P Q R S T U V W X Y Z # 

So It Goes Tabs (ver.1)

The Menzingers Tabs
Rating:
5/5 (1 vote)
So It Goes lessons Tabs too difficult? Try these video lessons and learn fast
                The Menzingers - So It Goes

Intro
one guitar plays this
E|----------------------------------------------------------|
B|----------------------------------------------------------|
G|-----------------------4----------------------------------|
D|-11-77777-11111111-777-2----------------------------------|
A|-11-77777-11111111-777-2----------------------------------|
E|-9--55555-9-9-9-9--555-0----------------------------------|

second guitar plays this
E|----------------------------------------------------------|
B|----------------------------------------------------------|
G|-69999996--69999996--69999996--69999996-------------------|
D|---------9---------9---------9---------9------------------|
A|----------------------------------------------------------|
E|----------------------------------------------------------|

Verse: play this chord 2 times, then play stuff from intro
E|-4------4-------------------------------------------------|
B|-5-5-----5------------------------------------------------|
G|-6--6-----6-----------------------------------------------|
D|-6---6----------------------------------------------------|
A|-4--------------------------------------------------------|
E|-4--------------------------------------------------------|

"on and on" part
E|---2------------2--------|-------------|------------------|
B|----2------------2-------|---play------|------------------|
G|-----3------------3------|---intro-----|------------------|
D|-4----4-2-----4----4--2--|---again-----|-6-6b-------------|
A|-4------2-----4-------2--|-------------|-4-4b-4b-4b-4b-4b-|
E|-2------0-----2-------0--|-------------|------------------|

Chorus
E|----------------------------------------------------------|
B|----------------------------------------------------------|
G|-9999999966666666--------99999999-------------------------|
D|-99999999666666667777777799999999-------------------------|
A|-77777777444444447777777777777777-------------------------|
E|-----------------55555555---------------------------------|

the second part is very similar except for extended chorus

E|----------------------------------------------------------|
B|----------------------------------------------------------|
G|-9999999966666666------------------------66666666---------|
D|-99999999666666667777777722227777222277776666666699999999-|
A|-77777777444444447777777722227777222277774444444499999999-|
E|-----------------555555550000555500005555--------77777777-|
            

comments powered by Disqus
↑ Back to top | The Menzingers Tabs for So It Goes. Lyrics for acoustic guitar and electric guitar. Tablatures and chords are parodies/interpretations of the original songs. You may use it for private study, scholarship, research or language learning purposes only