» » »

The Menzingers, Nice Things Tabs (ver.1)

Artists:  A B C D E F G H I J K L M N O P Q R S T U V W X Y Z # 

Nice Things Tabs (ver.1)

The Menzingers Tabs
 Rating:
4/5 (4 votes)
Nice Things lessons Tabs too difficult? Try these video lessons and learn fast
                ----------------------------
The Menzingers - Nice Things
----------------------------


Tuning: Standard


Intro x4
|-------------------------------------------|
|-----3-----4-4---4-4-----3-3-----3-3---3-3-|
|---3-----3-----3-------3-------3-----2-----|
|-5-----------------------------------------|
|-------------------------------------------|
|-------------------------------------------|

Pre-Verse x2
|-----------------------------------------------------------------|
|-----------------------------------------------------------------|
|-----------------8-8-8-8-8-8-8-8---------------------------------|
|-5-5-5-5-5-5-5-5-8-8-8-8-8-8-8-8-8-8-8-8-8-8-8-8-8-8-8-8-7-7-7-7-|
|-5-5-5-5-5-5-5-5-6-6-6-6-6-6-6-6-8-8-8-8-8-8-8-8-8-8-8-8-8-8-8-8-|
|-3-3-3-3-3-3-3-3-----------------6-6-6-6-6-6-6-6-6-6-6-6-5-5-5-5-|

Verse 1 x4
|-------------------------------------------|
|-----3-----4-4---4-4-----3-3-----3-3---3-3-|
|---3-----3-----3-------3-------3-----2-----|
|-5-----------------------------------------|
|-------------------------------------------|
|-------------------------------------------|

Pre-Verse x2
|-----------------------------------------------------------------|
|-----------------------------------------------------------------|
|-----------------8-8-8-8-8-8-8-8---------------------------------|
|-5-5-5-5-5-5-5-5-8-8-8-8-8-8-8-8-8-8-8-8-8-8-8-8-8-8-8-8-7-7-7-7-|
|-5-5-5-5-5-5-5-5-6-6-6-6-6-6-6-6-8-8-8-8-8-8-8-8-8-8-8-8-8-8-8-8-|
|-3-3-3-3-3-3-3-3-----------------6-6-6-6-6-6-6-6-6-6-6-6-5-5-5-5-|

Verse 2 x4
|-------------------------------------------|
|-----3-----4-4---4-4-----3-3-----3-3---3-3-|
|---3-----3-----3-------3-------3-----2-----|
|-5-----------------------------------------|
|-------------------------------------------|
|-------------------------------------------|

Chorus x3
|-----------------------------------------------------------------|
|-----------------------------------------------------------------|
|-----------------8-8-8-8-8-8-8-8---------------------------------|
|-5-5-5-5-5-5-5-5-8-8-8-8-8-8-8-8-8-8-8-8-8-8-8-8-8-8-8-8-7-7-7-7-|
|-5-5-5-5-5-5-5-5-6-6-6-6-6-6-6-6-8-8-8-8-8-8-8-8-8-8-8-8-8-8-8-8-|
|-3-3-3-3-3-3-3-3-----------------6-6-6-6-6-6-6-6-6-6-6-6-5-5-5-5-|

then

|-----------------------------------------------------------------|
|-----------------------------------------------------------------|
|-----------------8-8-8-8-8-8-8-8---------------------------------|
|-5-5-5-5-5-5-5-5-8-8-8-8-8-8-8-8-8-8-8-8-8-8-8-8-8-8-8-8-8-8-8-8-|
|-5-5-5-5-5-5-5-5-6-6-6-6-6-6-6-6-8-8-8-8-8-8-8-8-8-8-8-8-8-8-8-8-|
|-3-3-3-3-3-3-3-3-----------------6-6-6-6-6-6-6-6-6-6-6-6-6-6-6-6-|

Solo x2
|---------------------------------------------------|
|-3-3-3-3-3-3-6--3----------3-3-3-3-3-3-6--3--------|
|-------------------5-3--5--------------------5b6r5-|
|---------------------------------------------------|
|---------------------------------------------------|
|---------------------------------------------------|

|---------------------------------------------------|
|-3-3-3-3-3-3-6--3------------6---6---6---6---6---6-|
|-------------------5-3--5--7---7---7---7---7---7---|
|---------------------------------------------------|
|---------------------------------------------------|
|---------------------------------------------------|

Post-Solo x2
|-----------------------------------------------------------------|
|-----------------------------------------------------------------|
|-----------------8-8-8-8-8-8-8-8---------------------------------|
|-5-5-5-5-5-5-5-5-8-8-8-8-8-8-8-8-8-8-8-8-8-8-8-8-8-8-8-8-8-8-8-8-|
|-5-5-5-5-5-5-5-5-6-6-6-6-6-6-6-6-8-8-8-8-8-8-8-8-8-8-8-8-8-8-8-8-|
|-3-3-3-3-3-3-3-3-----------------6-6-6-6-6-6-6-6-6-6-6-6-6-6-6-6-|

then

x2
|-----------------------------------------------------------------|
|-----------------------------------------------------------------|
|-----------------8~----------------------------------------------|
|-5~--------------8~--------------8~------------------------------|
|-5~--------------6~--------------8~------------------------------|
|-3~------------------------------6~------------------------------|

Outro x2
|---------------------------------------|
|-------3---6-----3--6--3/4-3--4-----3--|
|-3--5---------5------------------5-----|
|---------------------------------------|
|---------------------------------------|
|---------------------------------------|

END

************************************

| /   slide up
| \   slide down
| h   hammer-on
| p   pull-off
| ~   vibrato
| +   harmonic
| x   Mute note
| b   Bend
| pb  Pre-bend
| br  Bend release
| pbr Pre-bend release
| brb Bend release bend

************************************
            
Submit corrections

comments powered by Disqus
↑ Back to top | The Menzingers Tabs for Nice Things. Lyrics for acoustic guitar and electric guitar. Tablatures and chords are parodies/interpretations of the original songs. You may use it for private study, scholarship, research or language learning purposes only