» » »

The Menzingers, I Cant Seem To Tell Tabs (ver.1)

Artists:  A B C D E F G H I J K L M N O P Q R S T U V W X Y Z # 

I Cant Seem To Tell Tabs (ver.1)

The Menzingers Tabs
Rating:
0/5 (0 votes)
I Cant Seem To Tell lessons Tabs too difficult? Try these video lessons and learn fast
                -------------------------------------------------------------------------------
                     I Can't Seem To Tell - The Menzingers
-------------------------------------------------------------------------------


Tuning: 1/2 Step Down (D# G# C# F# A# D#)

Intro x2

Guitar 1
                    x3                   x1
e|-----------4-4-4-4--|-------------------|
B|-----------5-5-5-5--|-------------------|
G|-----------6-6-6-6--|-------------------|
D|--2-2-2-2--6-6-6-6--|--6-6-6-6-7-7-7-7--|
A|--2-2-2-2--4-4-4-4--|--6-6-6-6-7-7-7-7--|
E|--0-0-0-0-----------|--4-4-4-4-5-5-5-5--|

Guitar 2
e|----7---7-9---9---|---7---7----7----7-|---7---7-9---9---|-12----12----14----14----|
B|------9-----9---9-|-----9---10---10---|-----9-----9---9-|----12----12----12----12-|
G|--9---------------|-9-----------------|-9---------------|-------------------------|
D|------------------|-------------------|-----------------|-------------------------|
A|------------------|-------------------|-----------------|-------------------------|
E|------------------|-------------------|-----------------|-------------------------|

ENd on an open E5 chord before the verse

Verse has no guitars.  After the verse, repeat the intro twice again.

Prechorus ("I'm warnin', I'm warnin', I'm warnin' you...")
e|---------------------------------|
B|---------5-5-5-5-----------------|
G|---------6-6-6-6-----------------|
D|-6-6-6-6-6-6-6-6-6-6-6-6-7-7-7-7-|
A|-6-6-6-6-4-4-4-4-6-6-6-6-7-7-7-7-|
E|-4-4-4-4---------4-4-4-4-5-5-5-5-|

Chorus x2
                  x3                 x1
e|------------------|-----------------|
B|------------------|---------5-5-5-5-|
G|------------------|-4-4-4-4-6-6-6-6-|
D|-7-7-7-7--2-2-2-2-|-4-4-4-4-6-6-6-6-|
A|-7-7-7-7--2-2-2-2-|-2-2-2-2-4-4-4-4-|
E|-5-5-5-5--0-0-0-0-|-----------------|

Bridge (Pretty much the same as the intro, Guitar 2 changes though)

Guitar 1
                    x3                   x1
e|-----------4-4-4-4--|-------------------|
B|-----------5-5-5-5--|-------------------|
G|-----------6-6-6-6--|-------------------|
D|--2-2-2-2--6-6-6-6--|--6-6-6-6-7-7-7-7--|
A|--2-2-2-2--4-4-4-4--|--6-6-6-6-7-7-7-7--|
E|--0-0-0-0-----------|--4-4-4-4-5-5-5-5--|

Guitar 2
e|-----------9p7----7---|-----------9-12-9-12|-----------9p7----7---|12----12----14----14---|
B|--9h10p9-------10---10|--9h10p9------------|--9h10p9-------10---10|---12----12----12----12|
G|9--------9------------|9--------9----------|9--------9------------|-----------------------|
D|----------------------|--------------------|----------------------|-----------------------|
A|----------------------|--------------------|----------------------|-----------------------|
E|----------------------|--------------------|----------------------|-----------------------|



Chorus x2
                  x3                 x1
e|------------------|-----------------|-------------4-|
B|------------------|---------5-5-5-5-|-------------5-|
G|------------------|-4-4-4-4-6-6-6-6-|---------4---6-|
D|-7-7-7-7--2-2-2-2-|-4-4-4-4-6-6-6-6-|-7---2---4---6-|
A|-7-7-7-7--2-2-2-2-|-2-2-2-2-4-4-4-4-|-7---2---2---4-|
E|-5-5-5-5--0-0-0-0-|-----------------|-5---0---------|

************************************

| /   slide up
| \   slide down
| h   hammer-on
| p   pull-off
| ~   vibrato
| +   harmonic
| x   Mute note
| b   Bend
| pb  Pre-bend
| br  Bend release
| pbr Pre-bend release
| brb Bend release bend

************************************
            
Submit corrections

comments powered by Disqus
↑ Back to top | The Menzingers Tabs for I Cant Seem To Tell. Lyrics for acoustic guitar and electric guitar. Tablatures and chords are parodies/interpretations of the original songs. You may use it for private study, scholarship, research or language learning purposes only