» » »

Theme Music, Yankee Doodle Tabs (ver.1)

Artists:  A B C D E F G H I J K L M N O P Q R S T U V W X Y Z # 

Yankee Doodle Tabs (ver.1)

Theme Music Tabs
 Rating:
4/5 (4 votes)
Yankee Doodle lessons Tabs too difficult? Try these video lessons and learn fast
1
                E|--------0---0---|
B|--1-1-3---1---3-|
G|----------------|
D|----------------|
A|----------------|
E|----------------|

E|--------0-----|
B|--1-1-3---1-0-|
G|--------------|
D|--------------|
A|--------------|
E|--------------|

E|--------0-1-0------------------|
B|--1-1-3-------3-1-0-----0-1-1~-|
G|--------------------0-2--------|
D|-------------------------------|
A|-------------------------------|
E|-------------------------------|

This is my first tab (not really) and im 10000% sure its right.
            
Submit corrections

comments powered by Disqus
↑ Back to top | Theme Music Tabs for Yankee Doodle. Lyrics for acoustic guitar and electric guitar. 1 Tablatures and chords are parodies/interpretations of the original songs. You may use it for private study, scholarship, research or language learning purposes only