» » »

Theme Music, Star Wars Cantina Band Tabs (ver.1)

Artists:  A B C D E F G H I J K L M N O P Q R S T U V W X Y Z # 

Star Wars Cantina Band Tabs (ver.1)

Theme Music Tabs
 Rating:
4/5 (4 votes)
Star Wars Cantina Band lessons Tabs too difficult? Try these video lessons and learn fast
1
                (Theme)

------5-------5-------5-------------------------------------------------------
-5--------5-------5-------5-----4/5---5-p-4-h-5-3----2-h-3-p-2-1--------------
-5--------5-------5-------5-----4/5---5---------0----0---------0--2-----------
-0--------0-------0-------------------0------------------------3--------------
----------------------------0----------------------3-----------------3---4----
                                                                              

----5-----5----5----------------------3---------------5---5---5---------------
-5-----5----5----5--4/5--3--3----2/3--3--6--5----3--5---5---5---5---4/5-------
-5-----5----5----5--4/5--5--5----5----4-----4-------5---5---5---5---4/5-------
-------------------------4--4----4----------3---------------------------------
-0-----0----0------------5--------------------5-----0---0---0-----------------
------------------0------------5------3---------------------------0-----------
                                                                              

-3-3----------------------------------0-----3----6--5-------------------------
-3-------5-p-3-1----------------1-----1-----2----7-----4-h-5--1---------------
-4-------4-----0---2-------2----2-----0-----2----7-----4------0---------------
---------3-----2---2-------3----1----------------------3------2---------------
------5--------3-----------3----------------0----5--------------3--3--2--1----
-3-------------------3--2--1----2-----3----------------3----------------------
                                                                              

----0-----0--------0------0--------0------------------------------0-----0-----
----1---1-----1----1---1-----1-----1---1--4/5----1----------------1--1-----1--
----2---------2----2---------2-----2------4/5----2-----2----------2--------2--
-------------------------------------------------2-----2----------------------
-0--------------0---------------0-------------------0-----------0-------------
----------0---------------0-------------------------------0--3----------0-----
                                                                              

----0------0------0-----------------------------0-----0------0----0------0----
----1---1-----1---1---1--4/5---3----------------1--1-----1---1--1----1---1-1--
----2---------2---2------4/5---3------0---------2--------2---2-------2---2----
-------------------------------3------3---------------------------------------
-0--------------0-----------------1---2------0-------------0-----------0------
-----------0----------------------------3--4----------0-----------0-----------
                                                                              

--------------------------------------------------------5--------------8------
-4/5---1---------------------1-------1--4/5-----------6----4-h-5-1-----8------
-4/5---2------2-----------2--------2----4/5--5------5------4-----0-----9------
-------2------2--------3--------4-------4/5--2----7--------3-----2----10------
----------0----------------------------------4----5----------------3----------
-----------------3--2--1--------2-------3-------5----------3------------------
            
Submit corrections

comments powered by Disqus
↑ Back to top | Theme Music Tabs for Star Wars Cantina Band. Lyrics for acoustic guitar and electric guitar. 1 Tablatures and chords are parodies/interpretations of the original songs. You may use it for private study, scholarship, research or language learning purposes only