» » »

Theme, Jingle Bell Rock Bass tabs (ver.1)

Artists:  A B C D E F G H I J K L M N O P Q R S T U V W X Y Z # 

Jingle Bell Rock Bass tabs (ver.1)

Theme Tabs
 Rating:
4/5 (4 votes)
Jingle Bell Rock lessons Tabs too difficult? Try these video lessons and learn fast
                
|-12-12-12-11-11-11-9-11-9---|
|--------------------------9-|
|----------------------------|
|----------------------------|

|-9-11-9---7--9-11-9---|
|--------9-----------9-|
|----------------------|
|----------------------|

|-----5-7-9--7-----5-7--9-9-9-9-7-12|
|-7-9----------7-9------------------|
|-----------------------------------|
|-----------------------------------|

|-12-12-14-12--9-12--14-12--12-12-11-9-7---|
|----------------------------------------9-|
|------------------------------------------|
|------------------------------------------|

|-12-12-14-12--9-12--14-12--7-7-9-9-9-9-11-9-7-|
|----------------------------------------------|
|----------------------------------------------|
|----------------------------------------------|

|-12-12-12-11-11-11-9-11-9---|
|--------------------------9-|
|----------------------------|
|----------------------------|

|-9-11-9---7--9--|
|--------9-------|
|----------------|
|----------------|

|-9-12-12-14-14-12-9-9-12-14-|
|----------------------------|
|----------------------------|
|----------------------------|

|-11-11-11-9-7--11-11-11-9-7-11--11-11-9-7-12~~~~~~|
|--------------------------------------------------|
|--------------------------------------------------|
|--------------------------------------------------|

Please Rate
This is 100% correct so have fun with it. Merry Christmas.
-Ryan
            
Submit corrections

comments powered by Disqus
↑ Back to top | Theme Bass for Jingle Bell Rock. Lyrics for acoustic guitar and electric guitar. Tablatures and chords are parodies/interpretations of the original songs. You may use it for private study, scholarship, research or language learning purposes only