» » »

Dead End Friends Tabs (ver.1)

Artists:  A B C D E F G H I J K L M N O P Q R S T U V W X Y Z # 

Dead End Friends Tabs (ver.1)

Them Crooked Vultures
Rating:
3/5 (4 votes)

Hard to play? Try these video lessons and learn fast.
                Them Crooked Vultures - Dead End Friends



Tuning - E A D G B e


Intro:
e|--------------------------------------------------------------------| 
B|--------------------------------------------------------------------| 
G|---18-18-18-x-17-17-17----------------------------------------------| 
D|--------------------------------------------------------------------| x4
A|---16-16-16-x-15-15-15--9h11-11-11--9h11-11-11----------------------| 
E|------------------------9-9--9--9---9-9--9--9-----------------------| 

e|--------------------------------------------------------------------| 
B|--------------------------------------------------------------------| 
G|--------------------------------------------------------------------| 
D|---11--11-9-11--11-9-11--11-9-11-12-12-9----------------------------| x2
A|---9---9--9-9---9--9-9---9--9-9--9--9--9----------------------------| 
E|--------------------------------------------------------------------| 


Main Riff:
e|--------------------------------------------------------------------| 
B|--------------------------------------------------------------------| 
G|--------------------------------------------------------------------| 
D|--------------------------------------------------------------------| x2
A|---11--11-9-11--11-9-11--11-9-11-12-12-9-11-------------------------| 
E|---9---9--9-9---9--9-9---9--9-9--9--9--9-9--------------------------|

e|--------------------------------------------------------------------| 
B|--------------------------------------------------------------------| 
G|--------------------------------------------------------------------| 
D|---11--11-9-11--11-9-11--11-9-11-12-12-9----------------------------| x2
A|---9---9--9-9---9--9-9---9--9-9--9--9--9----------------------------| 
E|--------------------------------------------------------------------| 


Chorus:
e|--------------------------------------------------------------------| 
B|--------------------------------------------------------------------| 
G|--------------------------------------------------------------------| 
D|--------------------------------------------------------------------|
A|---10/14--14-12-14--14\12--12\11--11-9-11--11-9-11--11-9-11---------| 
E|---9-/12--12-12-12--12\10--10\9---9--9-9---9--9-9---9--9-9----------| 

2nd Time
e|--------------------------------------------------------------------| 
B|--------------------------------------------------------------------| 
G|--------------------------------------------------------------------| 
D|----------------------7~----14~-------------------------------------|
A|---11-9-11--11-9-11---7~----14~---11--11-9-11--11-9-11--11-9-11-----| 
E|---9--9-9---9--9-9----5~----12~---9---9--9-9---9--9-9---9--9-9------| 


Solo in C# minor Pentatonic (play these notes randomly)
e|----------------------------9-12-9----------------------------------| 
B|-----------------------9-12--------12-9-----------------------------| 
G|------------------9-11------------------11-9------------------------| 
D|-------------9-11----------------------------11-9-------------------|
A|--------9-11--------------------------------------11-9--------------| 
E|---9-12------------------------------------------------12-9---------| 
            
Hard to play? Try these video lessons and learn fast. | Correct




comments powered by Disqus
↑ Back to top | Tablatures and chords are parodies/interpretations of the original songs. You may use it for private study, scholarship, research or language learning purposes only