» » »

The Mascara Story, Cracks In The Pavement Bass tabs (ver.1)

Artists:  A B C D E F G H I J K L M N O P Q R S T U V W X Y Z # 

Cracks In The Pavement Bass tabs (ver.1)

The Mascara Story Tabs
Rating:
0/5 (0 votes)
Cracks In The Pavement lessons Tabs too difficult? Try these video lessons and learn fast
                Bassist: Sean Keddy

This is my first tab, so apologies if it's bad or anything!  I used the studio 
and live clip to work it out.

[Tuning: Standard - E,A,D,G]

Intro: [Rest while Guitar plays]
G|------------------REST------------------|
D|------------------REST------------------|
A|------------------REST------------------|
E|------------------REST------------------|

Verse One:
("It's just the way I want to be" ... "I don't get you")
G|----------------------------------------|
D|----------------------------------------|
A|----------------------------------------|
E|-7-7-7-7--2-2-2-2--3-3-3-3--5-5-5-5-----| [x6]

Chorus:
("F**k you!  You're not right!" ... "But you've opened up my eyes")
G|----------------------------------------|
D|----------------------------------------|
A|----------------------------------------|
E|-7-7-7---2-2-2---3-3-3---5-5-5----------| [x2]

G|----------------------------------------|
D|----------------------------------------|
A|----------------------------------------|
E|-77777777-22222222-33333333-55555555----| [x2]

Verse Two:
("If I am static then you are distort" ... "And I'd miss you but I don't")
G|------------------REST------------------|
D|------------------REST------------------|
A|------------------REST------------------|
E|------------------REST------------------|

Pre-Chorus/Drum Part:
G|------------------REST------------------|
D|------------------REST------------------|
A|------------------REST------------------|
E|------------------REST------------------|

Chorus:
("F**k you!  You're not right!" ... "But you've opened up my eyes")
G|----------------------------------------|
D|----------------------------------------|
A|----------------------------------------|
E|-7-7-7---2-2-2---3-3-3---5-5-5----------| [x2]

G|----------------------------------------|
D|----------------------------------------|
A|----------------------------------------|
E|-77777777-22222222-33333333-55555555----| [x2]

Interlude:
G|----------------------------------------|
D|----------------------------------------|
A|----------------------------------------|
E|-7~---2~---3~---5~---7~---2~---3~---5~--|

Chorus: (Slightly different)
("F**k you!  You're not right!" ... "But you've opened up my eyes")
G|----------------------------------------|
D|----------------------------------------|
A|----------------------------------------|
E|-7-7-7-7---2-2-2-2---3-3-3-3---5-5-5-5--| [x2]

G|----------------------------------------|
D|----------------------------------------|
A|----------------------------------------|
E|-77777777-22222222-33333333-55555555----| [x2]


And that's how to play this awesome song!  It's a shame The Mascara Story split up, but 
            

comments powered by Disqus
↑ Back to top | The Mascara Story Bass for Cracks In The Pavement. Lyrics for acoustic guitar and electric guitar. Tablatures and chords are parodies/interpretations of the original songs. You may use it for private study, scholarship, research or language learning purposes only