>
 >
Conquer You

Conquer You Bass Tabs

The Mascara Story - Conquer You chords, tabs, tablatures, lyrics

Guitar lessons | Add/correct | Request | Top 50 tabs Artists:  A B C D E F G H I J K L M N O P Q R S T U V W X Y Z 0-9

Conquer You Bass Tabs – The Mascara Story

CD, Sheet music, Poster

Do you like Conquer You? Share with your friends now
Bass Tabs
Bassist: Sean Keddy

My third tab, and it's for the awesome song by The Mascara Story.  Enjoy!

[Tuning: Standard - E,A,D,G]

Verse One:
("This new romance between us" ... "But a piece of you, I win every time")
G|---REST---|
D|---REST---|
A|---REST---|
E|---REST---|

Bridge One:
("A box of new butterflies" ... "From you to me, with pink ribbon and everything")
G|--------------------|
D|--------------------|
A|--------------------|
E|-1~--2~--6~------6~-|

Verse Two:
("Now it's compulsory, at least to me" ... "I'm knotting tongues, that isn't what you'd want")
G|---REST---|
D|---REST---|
A|---REST---|
E|---REST---|

Bridge Two:
("A box of new butterflies" ... "But take this compass and map and glue")
G|--------------------|
D|--------------------|
A|--------------------|
E|-1~--2~--6~------6~-|

Chorus:
("Lover please, find attatched" ... "And I'll conquer you")
G|---------------------------------------------|
D|---------------------------------------------|
A|-55555555-22222222-77777777-9999h10-10-10-10-|
E|---------------------------------------------|

G|-----------------------------------------|
D|-----------------------------------------|
A|-55555555-22222222-77777777-9-9~--10-10~-|
E|-----------------------------------------|

Verse Three:
("Your shopping list of positives" ... "Kiss me quick, the gentle art of us")
G|---REST---|
D|---REST---|
A|---REST---|
E|---REST---|

Bridge Three:
("Under our sheets" ... "They'll find no, find no, sleep")
G|--------------------|
D|--------------------|
A|--------------------|
E|-1~--2~--6~------6~-|

Chorus:
("Lover please, find attatched" ... "And I'll conquer you")
G|---------------------------------------------|
D|---------------------------------------------|
A|-55555555-22222222-77777777-9999h10-10-10-10-|
E|---------------------------------------------|

G|-----------------------------------------|
D|-----------------------------------------|
A|-55555555-22222222-77777777-9-9~--10-10~-|
E|-----------------------------------------|

Break:
(..."I'll conquer you"...)
G|--------------|
D|--------------|
A|-9-9~--10-10~-|
E|--------------|

Interlude 1:
[Slowly fade in when Daveit sings "And I'll hold your sides..."]
("Kiss me quick, kiss me now" ... "And I'll hold your sides forever")
G|-------------------|
D|-------------------|
A|-55555555555555555-|
E|-------------------|

[After that, play the chorus part]
G|---------------------------------------------|
D|---------------------------------------------|
A|-55555555-22222222-77777777-9999h10-10-10-10-|
E|---------------------------------------------|
[Pause for a moment]
G|-------------------------------------|
D|-------------------------------------|
A|-55555555-22222222-77777777--9-9-10~-|
E|-------------------------------------|

Interlude Two:
("Lover, please find a map of yours truly" ... "I'll conquer you")
G|---REST---|
D|---REST---|
A|---REST---|
E|---REST---|

Interlude Three:
[Come in after Daveit sings "I'm all for you smiling..."]
("Lover, I could give you the co-ordinates to my heart" ... "Over and over again")
G|-----------|
D|-----------|
A|-5-5---2-2-|
E|-----------|

Chorus:
("Lover please, find attatched" ... "And I'll conquer you")
G|---------------------------------------------|
D|---------------------------------------------|
A|-55555555-22222222-77777777-9999h10-10-10-10-|
E|---------------------------------------------|

G|-----------------------------------------|
D|-----------------------------------------|
A|-55555555-22222222-77777777-9-9~--10-10~-|
E|-----------------------------------------|

Break
("I'll conquer you" ... "I'll conquer you")
G|-----------------------------------------------------------|
D|-----------------------------------------------------------|
A|-9-9~--10-10~---9-9~--10-10~---9-9~--10-10~---9-9~--10-10~-|
E|-----------------------------------------------------------|





Comments


Popular The Mascara Story tabs & chords
Cracks In The Pavement Bass Tabs
This Is Not A Bruise Bass Tabs
About Last Night Tabs
Episode Intro Tabs
This Is Not A Bruise Tabs


Song lyrics



↑ Back to top | Tablatures and chords are parodies/interpretations of the original songs. You may use it for private study, scholarship, research or language learning purposes only
© 2014 AZChords.com Contact us | Privacy policy | DMCA | Add/correct tabs | Request tabs | Top 50 tabs