» » »

The Mark Of Cain, Pointman Tabs (ver.1)

Artists:  A B C D E F G H I J K L M N O P Q R S T U V W X Y Z # 

Pointman Tabs (ver.1)

The Mark Of Cain Tabs
 Rating:
4/5 (4 votes)
Pointman lessons Tabs too difficult? Try these video lessons and learn fast
                Intro "You wouldn't read about it..."
|-------------------------------------------------|
|-------------------------------------------------|
|--6---6---6---6---6---6--------------------------|
|--6---6---6---6---6---6--------------------------|
|--6---6---6---6---6---6--------------------------|
|--4---4---4---4---4---4--------------------------|

Riff one
     P.M.         P.M
|-------------------------------------------------|
|-------------------------------------------------|
|-------------------------------------------------|
|----2---6---5---2---3---5------------------------|
|----2---6---5---2---3---5------------------------|
|----0---4---3---0---1---3------------------------|

Riff 2:
|--------------------------------------------------------|
|--------------------------------------------------------|
|--------------------------------------------------------|
|----2---3---0---5---3---0---5---0---6---5---2---3---5---|
|----2---3---0---5---3---0---5---0---6---5---2---3---5---|
|----0---1---0---3---1---0---3---0---4---3---0---1---3---|
            
Submit corrections

comments powered by Disqus
↑ Back to top | The Mark Of Cain Tabs for Pointman. Lyrics for acoustic guitar and electric guitar. Tablatures and chords are parodies/interpretations of the original songs. You may use it for private study, scholarship, research or language learning purposes only