» » »

The Mark Of Cain, Interloper Tabs (ver.1)

Artists:  A B C D E F G H I J K L M N O P Q R S T U V W X Y Z # 

Interloper Tabs (ver.1)

The Mark Of Cain Tabs
 Rating:
4/5 (4 votes)
Interloper lessons Tabs too difficult? Try these video lessons and learn fast
                intro:
E|--------------------------------------
B|--------------------------------------
G|-3-0-0-2-0-0-3-0-0-2-0-0-3-0-2-0------×4
D|--------------------------------------
A|--------------------------------------
E|--------------------------------------
riff1:
E|----------------------------------------------------
B|----------------------------------------------------
G|-------------9bend this note up---------------------×2
D|-2---------8-------------------2---------8-8---9-9--
A|-2-------7---------------------2-------7-----7------
E|-0-----------------------------0--------------------
 after this, u strum all the open strings of the guitar 4 times.
(listen to the song to know when. pretty easy)
all the instruments then stop after this and the guitar comes in by 
itself for the first bit of the next riff.
riff2:
E|----------------------------------------------------------------------------------------------------------------------
B|----------------------------------------------------------------------------------------------------------------------
G|----------------------------------------------------------------------------------------------------------------------
D|----------------------------------------------------------------------------------------------------------------------
A|----------------------------------------------------------------------------------------------------------------------
E|-3-0-0-3-0-0-3-0-0-3-0-0-11---3-0-0-3-0-0-3-0-0-3-0-0-11---3-0-0-3-0-0-3-0-0-3-0-0-11---3-0-0-3-0-0-3-0-0-3-0-0-12----
              riff3:
E|------------------------------------------------------------------------------------------------------
B|------------------------------------------------------------------------------------------------------
G|------------------------------------------------------------------------------------------------------
D|------------------------------------------------------------------------------------------------------
A|------------------------------------------------------------------------------------------------------
E|-3-0-0-6-0-0-3-0-0-6-0-0-3-0-0-6-0-0-3-0-0-6-0-0-3-0-0-6-0-0-3-0-0-6-0-0-3-0-0-6-0-0-3-0-0-6-0-0-3----      
chorus1:
E|---------------------------------------------------------------------------------
B|---------------------------------------------------------------------------------
G|---------------------------------------------------------------------------------×2
D|-2-2-5----------2-2-5----------2-2-5---------------------------------------------
A|-2-2-5----------2-2-5----------2-2-5---------------------------------------------
E|-0-0-3-0-6-5-3--0-0-3-0-6-5-3--0-0-3-0-6-5-3--5-5-5-5-5-5-5-5-5-5-5-5-5-5-5-5----         
riff4:
E|-----------------------------------------------------------------------------------------
B|-----------------------------------------------------------------------------------------
G|-4---6---4-----6-6-----4---6---4-----6-6-----4---6---4-----6-6-----4---6---4-1-1--1-1----×2
D|-5---7---5-----7-7-----5---7---5-----7-7-----5---7---5-----7-7-----5---7---5-2-2--2-2----
A|-5---7---5-----7-7-----5---7---5-----7-7-----5---7---5-----7-7-----5---7---5-2-2--2-2----
E|-3-0-5-0-3-0-0-5-5-0-0-3-0-5-0-3-0-0-5-5-0-0-3-0-5-0-3-0-0-5-5-0-0-3-0-5-0-3-0-0--0-0----
riff5:
E|---------------------------------------------------------------------
B|-5-5-5-5-5-5-5-5-5-5-5-5-5-5-5-5-6-6-6-6-6-6-6-6-5-5-5-5-5-5-5-5-----
G|-7-7-7-7-7-7-7-7-7-7-7-7-7-7-7-7-8-8-8-8-8-8-8-8-7-7-7-7-7-7-7-7-----
D|-6-6-6-6-6-6-6-6-6-6-6-6-6-6-6-6-7-7-7-7-7-7-7-7-6-6-6-6-6-6-6-6-----
A|-7-7-7-7-7-7-7-7-7-7-7-7-7-7-7-7-8-8-8-8-8-8-8-8-7-7-7-7-7-7-7-7-----
E|---------------------------------------------------------------------
verse:
E|--------------------------------------------------------------------------------------------------------------------------------------
B|--------------------------------------------------------------------------------------------------------------------------------------
G|--------------------------------------------------------------------------------------------------------------------------------------
D|--------------------------------------------------------------------------------------------------------------------------------------
A|-2-2-2-2-2-2-2-2-2-2-2-2-2-2-2-2-2-2-2-2-2-2-2-2-2-2-2-2-2-2-2-2-3-3-3-3-3-3-3-3-3-3-3-3-3-3-3-3-2-2-2-2-2-2-2-2-2-2-2-2-2-2-2-2-2----
E|-0-0-0-0-0-0-0-0-0-0-0-0-0-0-0-0-0-0-0-0-0-0-0-0-0-0-0-0-0-0-0-0-1-1-1-1-1-1-1-1-1-1-1-1-1-1-1-1-0-0-0-0-0-0-0-0-0-0-0-0-0-0-0-0-0----
   you wanna know what a liar i can be.............................you only saw what you wanted to see.......
   you wanna know about misdirection...............................you only saw what you wanted to see.......
chorus2:
E|---------------------------------------------------------------------------
B|---------------------------------------------------------------------------
G|---------------------------------------------------------------------------×2
D|-2-2-5----------2-2-5----------2-2-5----------2-2---2---2-2-2---2---2-2----
A|-2-2-5----------2-2-5----------2-2-5----------2-2---2---2-2-2---2---2-2----
E|-0-0-3-0-6-5-3--0-0-3-0-6-5-3--0-0-3-0-6-5-3--0-0---0---0-0-0---0---0-0----  
   what i needed to know........................who made you the interloper

riff6: (variation on riff4)
E|------------------------------------------------------------------
B|------------------------------------------------------------------
G|-4---6---4-1-1---4---6---4-1-1---4---6---4-1-1---4---6---4-1-1----
D|-5---7---5-2-2---5---7---5-2-2---5---7---5-2-2---5---7---5-2-2----
A|-5---7---5-2-2---5---7---5-2-2---5---7---5-2-2---5---7---5-2-2----
E|-3-0-5-0-3-0-0---3-0-5-0-3-0-0---3-0-5-0-3-0-0---3-0-5-0-3-0-0----  
lead riff:
E|------------------------------------------------------------------------------------------------------------------------------------------
B|------------------------------------------------------------------------------------------------------------------------------------------
G|-3-0-0-0-2-0-0-3-0-0-2-0-0-3-0-0-2-0-----3-0-0-2-0-0-3-0-0-2-0-0-3-0-----2-0-0-3-0-0-2-0-0-3-0-2-0-----3-0-0-2-0-0-3-0-0-2-0-0-2-0-0-0----×2
D|-------------------------------------2-0-----------------------------2-0---------------------------2-0------------------------------------
A|------------------------------------------------------------------------------------------------------------------------------------------
E|------------------------------------------------------------------------------------------------------------------------------------------
solo guitar chord:
E|-------
B|-------
G|-0-----
D|-11----
A|-9-----
E|-------
riff7:
E|---------------------------------------------------------------------------------------
B|------------------------------------0--0--0--0--0--0--0--0--0--0--0--0--0--0--0--0-----
G|----0-0-0-0-0-0-0-1-0-0-0-0-0-0-0-0-10-10-10-11-10-10-10-11-10-10-10-11-10-10-10-10----
D|---------------------------------------------------------------------------------------
A|---------------------------------------------------------------------------------------
E|---------------------------------------------------------------------------------------
riff8: (similar to riff2)
E|----------------------------------------------------------------------------------------------------------------------
B|----------------------------------------------------------------------------------------------------------------------
G|----------------------------------------------------------------------------------------------------------------------
D|----------------------------------------------------------------------------------------------------------------------
A|----------------------------------------------------------------------------------------------------------------------
E|-3-0-0-3-0-0-3-0-0-3-0-0-10---3-0-0-3-0-0-3-0-0-3-0-0-11---3-0-0-3-0-0-3-0-0-3-0-0-12---3-0-0-3-0-0-3-0-0-3-0-0-13----
coda: (combination of chorus1 and chorus2)
E|--------------------------------------------------------------------------------------------------------------------------------------- 
B|---------------------------------------------------------------------------------------------------------------------------------------
G|----------------------------------------------------------------------------------------------------------7-7-7-7-7-7-7-7-7-7-7-7-7----
D|-2-2-5----------2-2-5----------2-2-5----------2-2-5----------2-2-5----------2-2-5----------2-2-5---------------------------------------
A|-2-2-5----------2-2-5----------2-2-5----------2-2-5----------2-2-5----------2-2-5----------2-2-5----------5-5-5-5-5-5-5-5-5-5-5-5-5----
E|-0-0-3-0-6-5-3--0-0-3-0-6-5-3--0-0-3-0-6-5-3--0-0-3-0-6-5-3--0-0-3-0-6-5-3--0-0-3-0-6-5-3--0-0-3-0-6-5-3-------------------------------

order of the song:
intro
riff1
riff2
riff3
chorus1
riff4
riff5
riff4 (play just once)
verse
chorus2
riff6
lead riff
riff4 (play just once)
verse
chorus2
solo chord
riff7
riff8
riff3 (×2.5)
            
Submit corrections

comments powered by Disqus
↑ Back to top | The Mark Of Cain Tabs for Interloper. Lyrics for acoustic guitar and electric guitar. Tablatures and chords are parodies/interpretations of the original songs. You may use it for private study, scholarship, research or language learning purposes only