>
 >
Pour Some Sugar On Me

Pour Some Sugar On Me Guitar Tabs

The Maine - Pour Some Sugar On Me chords, tabs, tablatures, lyrics

Guitar lessons | Add/correct | Request | Top 50 tabs Artists:  A B C D E F G H I J K L M N O P Q R S T U V W X Y Z 0-9

Pour Some Sugar On Me Guitar Tabs – The Maine

CD, Sheet music, Poster

Do you like Pour Some Sugar On Me? Share with your friends now
Tabs
-----------------------------------------------------------
-----------------------------------------------------------

Tuning: Eb Bb Eb Ab C F or
	   D# A# D# G# C F whichever you like better.

along with playing over the song myself, and I am pretty sure that this is the tuning
they use for the song.
Theres an open high E string in the solo, and the only way to play it and have it sound
right is to tune to this tuning.
I only know the both guitar parts in a couple spots, but I tabbed it out so that just one
guitarist can play it all the way through the way I do.
Its a really fun song to play over, and its not too hard either.
This is my first tab so bear with me, and good luck!

           P.S.- Ive noticed that with a lot of tabs that its not too easy to find out the
easiest way to play the solos when all you have is the tab,
so Ill try to explain the best way to make it sound like how Jared Monaco plays it.
 Also, at the bottom, Ill include on how to play the song itself.


Intro:

Lead:
 F||-----------------------------------------|
 C||-----------------------------------------|
Ab||-----5p3-----3-----3--5~~--3-----3--5~~--|
Eb||----------5-----5-------------5----------|
Bb||--3--------------------------------------|
Eb||-----------------------------------------|
              x  x  x  x       x  x  x

Rhythm:
 F||-----------------------------------------|
 C||-----------------------------------------|
Ab||--5--5-------------3/5-------------------|
Eb||--5--5-------------3/5-------------------|
Bb||--3--3-------------1/3-------------------|
Eb||-----------------------------------------|


Lead:
 F|-----------------------------------------|
 C|-----------------------------------------|
Ab|-----5p3-----3-----3--5~~--3-----3\2~~---|
Eb|----------5-----5-------------5----------|
Bb|--3--------------------------------------|
Eb|-----------------------------------------|
             x  x  x  x       x  x

Rhythm:
 F|-----------------------------------------|
 C|-----------------------------------------|
Ab|--5--5-------------3/5-------------------|
Eb|--5--5-------------3/5-------------------|
Bb|--3--3-------------1/3-------------------|
Eb|-----------------------------------------|

Lead:
 F|-----------------------------------------|
 C|-----------------------------------------|
Ab|-----5p3-----3-----3--5~~--3-----3--5~~--|
Eb|----------5-----5-------------5----------|
Bb|--3--------------------------------------|
Eb|-----------------------------------------|
              x  x  x  x       x  x  x

Rhythm:
 F|-----------------------------------------|
 C|-----------------------------------------|
Ab|--5--5-------------3/5-------------------|
Eb|--5--5-------------3/5-------------------|
Bb|--3--3-------------1/3-------------------|
Eb|-----------------------------------------|

Lead:
 F|-----------------------------------------|
 C|-----------------------------------------|
Ab|-----5p3-----3-----3--5------------------|
Eb|----------5-----5------------------------|
Bb|--3--------------------------------------|
Eb|-----------------------------------------|
             x  x  x
Rhythm:
 F|-----------------------------------------|
 C|-----------------------------------------|
Ab|--5--5-------------3--5------------------|
Eb|--5--5-------------3--5------------------|
Bb|--3--3-------------1--3------------------|
Eb|-----------------------------------------|

Verse 1:
 F|------------------------|
 C|------------------------|
Ab|------------------------|
Eb|-10--10----8--10--8--10-|	Play this four times.
Bb|-10--10----8--10--8--10-|
Eb|-10--10----8--10--8--10-|
    x   x     x  x   x  x
 F|------------------------|
 C|------------------------|
Ab|------------------------|
Eb|-10--10----8--10--8--10-|	Play this eight times.
Bb|-10--10----8--10--8--10-|
Eb|-10--10----8--10--8--10-|


Pre-Chorus 1:
 F|----------------------------------------------------------|
 C|----------------------------------------------------------|
Ab|-----------X--X--3--3---X--X-------------X--X--3--3--X--X-|
Eb|-3--3--X---X--X--3--3---X--X---3--3--X---X--X--3--3--X--X-|
Bb|-3--3--X---X--X--1--1---X--X---3--3--X---X--X--1--1--X--X-|
Eb|-3--3--X-----------------------3--3--X--------------------|

 F|------------------------------|
 C|------------------------------|
Ab|------------------------------|
Eb|-1--1--8--X--6----1--X-6--X-8-|
Bb|-1--1--8--X--6----1--X-6--X-8-|
Eb|-1--1--8--X--6----1--X-6--X-8-|

Chorus:
 F|-----------------------------------------------|
 C|-----------------------------------------------|
Ab|-----------------------------------------------|
Eb|-1--1--X----6--6--X---X--8--8--X----X--8--8--X-|	Play this
Bb|-1--1--X----6--6--X---X--8--8--X----X--8--8--X-|	two times.
Eb|-1--1--X----6--6--X---X--8--8--X----X--8--8--X-|

 F|-----------------------------------------------------------|
 C|-----------------------------------------------------------|
Ab|-----------------------------------------------------------|
Eb|-1--1--X---6--6--X---X--8--8--X---X--8--8--X----10---10--10|
Bb|-1--1--X---6--6--X---X--8--8--X---X--8--8--X----10---10--10|
Eb|-1--1--X---6--6--X---X--8--8--X---X--8--8--X----10---10--10|

Bridge:

Lead:
 F|-----------------------------------------|
 C|-----------------------------------------|
Ab|-----5p3-----3--------5~~--3-----3--5~~--|
Eb|----------5-----5--4----------5----------|
Bb|--3--------------------------------------|
Eb|-----------------------------------------|
             x  x  x  x       x  x  x

Rhythm:
 F|-----------------------------------------|
 C|-----------------------------------------|
Ab|--5--5-------------3/5-------------------|
Eb|--5--5-------------3/5-------------------|
Bb|--3--3-------------1/3-------------------|
Eb|-----------------------------------------|

Lead:
 F|-----------------------------------------|
 C|-----------------------------------------|
Ab|-----5p3-----3--------5~~--3-----3\2~~---|
Eb|----------5-----5--4----------5----------|
Bb|--3--------------------------------------|
Eb|-----------------------------------------|
             x  x  x  x       x  x

Rhythm:
 F|-----------------------------------------|
 C|-----------------------------------------|
Ab|--5--5-------------3/5-------------------|
Eb|--5--5-------------3/5-------------------|
Bb|--3--3-------------1/3-------------------|
Eb|-----------------------------------------|

Lead:
 F|-----------------------------------------|
 C|-----------------------------------------|
Ab|-----5p3-----3--------5~~--3-----3--5~~--|
Eb|----------5-----5--4----------5----------|
Bb|--3--------------------------------------|
Eb|-----------------------------------------|
             x  x  x  x       x  x  x

Rhythm:
 F|-----------------------------------------|
 C|-----------------------------------------|
Ab|--5--5-------------3/5-------------------|
Eb|--5--5-------------3/5-------------------|
Bb|--3--3-------------1/3-------------------|
Eb|-----------------------------------------|

Lead:
 F|-----------------------------------------|
 C|-----------------------------------------|
Ab|-----5p3-----3--------5------------------|
Eb|----------5-----5--4---------------------|
Bb|--3--------------------------------------|
Eb|-----------------------------------------|
             x  x  x
Rhythm:
 F|-----------------------------------------|
 C|-----------------------------------------|
Ab|--5--5-------------3--5------------------|
Eb|--5--5-------------3--5------------------|
Bb|--3--3-------------1--3------------------|
Eb|-----------------------------------------|

Verse 2:
 F|------------------------|
 C|------------------------|
Ab|------------------------|
Eb|-10--10----8--10--8--10-|	Play this four times.
Bb|-10--10----8--10--8--10-|
Eb|-10--10----8--10--8--10-|
    x   x     x  x   x  x

 F|------------------------|
 C|------------------------|
Ab|------------------------|
Eb|-10--10----8--10--8--10-|	Play this eight times.
Bb|-10--10----8--10--8--10-|
Eb|-10--10----8--10--8--10-|

Pre-Chorus 2:
 F|----------------------------------------------------------|
 C|----------------------------------------------------------|
Ab|-----------X--X--3--3---X--X-------------X--X--3--3--X--X-|
Eb|-3--3--X---X--X--3--3---X--X---3--3--X---X--X--3--3--X--X-|
Bb|-3--3--X---X--X--1--1---X--X---3--3--X---X--X--1--1--X--X-|
Eb|-3--3--X-----------------------3--3--X--------------------|

 F|------------------------------|
 C|------------------------------|
Ab|------------------------------|
Eb|-1--1--8--X--6----1--X-6--X-8-|
Bb|-1--1--8--X--6----1--X-6--X-8-|
Eb|-1--1--8--X--6----1--X-6--X-8-|

Chorus 2:
 F|-----------------------------------------------|
 C|-----------------------------------------------|
Ab|-----------------------------------------------|
Eb|-1--1--X----6--6--X---X--8--8--X----X--8--8--X-|	Play this
Bb|-1--1--X----6--6--X---X--8--8--X----X--8--8--X-|	two times.
Eb|-1--1--X----6--6--X---X--8--8--X----X--8--8--X-|

 F|-----------------------------------------------------------|
 C|-----------------------------------------------------------|
Ab|-----------------------------------------------------------|
Eb|-1--1--X---6--6--X---X--8--8--X---X--8--8--X----10---------|
Bb|-1--1--X---6--6--X---X--8--8--X---X--8--8--X----10---------|
Eb|-1--1--X---6--6--X---X--8--8--X---X--8--8--X----10---------|

Solo:
 F|-------8----------|----------------------------|
 C|--6/8-----8\6--4--|--4----4----4----4----3-----|
Ab|------------------|--3----3----3----3----3-----|
Eb|------------------|--3h5-------3h5-------5--3--|
Bb|------------------|----------------------------|
Eb|------------------|----------------------------|

 F|--0--0--0--0--X--X----0--0--0--0--0--0--|----------|
 C|--4--5--4--0--X--X----4--5--4--5--4--0--|-------3--|
Ab|----------------------------------------|-------3--|
Eb|----------------------------------------|--3h5-----|
Bb|----------------------------------------|----------|
Eb|----------------------------------------|----------|

 F|------------------------|----------------------------------|
 C|------------------------|--8--11b13r11--8--8---------------|
Ab|------------------------|---------------------10b12r10--8~-|
Eb|--3b4r3--1--------------|----------------------------------|
Bb|--------------3b4r3--1--|----------------------------------|
Eb|------------------------|----------------------------------|

 F|--------------------------------|
 C|--------------------------------|
Ab|--8-----8------8----------------|
Eb|--8h10--8--10--8----8-----8-----|
Bb|--------------------8h10--8--6--|
Eb|--------------------------------|

 F|--------------------------------------------|
 C|--------------------------------------------|
Ab|--------------------------------------------|
Eb|--------------------------------5--5--------|
Bb|--------------5--5--6--6--8--8--------8--8--|
Eb|--6--6--8--8--------------------------------|

 F|-------------------------------------------|
 C|-------------------------------------------|
Ab|-------------------------------------------|
Eb|-------------X--X-------------X--X---------|
Bb|--5h6--5-----X--X--5h6--5-----X--X--6/8~~--|
Eb|----------8----------------8---------------|

Pre-Chorus 3:
 F|----------------------------------------------------------|
 C|----------------------------------------------------------|
Ab|-----------X--X--3--3---X--X-------------X--X--3--3--X--X-|
Eb|-3--3--X---X--X--3--3---X--X---3--3--X---X--X--3--3--X--X-|
Bb|-3--3--X---X--X--1--1---X--X---3--3--X---X--X--1--1--X--X-|
Eb|-3--3--X-----------------------3--3--X--------------------|

 F|------------------------------|
 C|------------------------------|
Ab|------------------------------|
Eb|-1--1--8--X--6----1--X-6--X-8-|
Bb|-1--1--8--X--6----1--X-6--X-8-|
Eb|-1--1--8--X--6----1--X-6--X-8-|

Chorus 3:
 F|--------------------------------------------------------|
 C|--------------------------------------------------------|
Ab|--------------------------------------------------------|
Eb|----------------------X--X--8--8--X--X--8--8--X--X--X--X|
Bb|----------------------X--X--8--8--X--X--8--8--X--X--X--X|
Eb|----------------------X--X--8--8--X--X--8--8--X--X--X--X|

 F|-----------------------------------------------|
 C|-----------------------------------------------|
Ab|-----------------------------------------------|
Eb|-1--1--X----6--6--X---X--8--8--X----X--8--8--X-|	Play this
Bb|-1--1--X----6--6--X---X--8--8--X----X--8--8--X-|	six times.
Eb|-1--1--X----6--6--X---X--8--8--X----X--8--8--X-|

 F|--------------------------||
 C|--------------------------||
Ab|--------------------------||
Eb|-1--1----6--6----X--8--8--||
Bb|-1--1----6--6----X--8--8--||
Eb|-1--1----6--6----X--8--8--||

Key:
	x	palm mute
	X	mute with fingers
	h	hammer-on
	p	pull-off
	/	slide up
	\	slide down
	br	bend-release


	Okay, so thats the tab for the song.
Now, Ill try to explain how to play each section.

Intro and Bridge:
	-Lead: Keep your playing hand in one position,
it makes it easier to get the feel for the riff.
Also keep your picking hand in almost the same position when palm-muting,
and when not palm-muting, so that it sounds right.
On the second time that this riff comes up in the sound,
it changes slightly. Just practice both versions of the riff so
that you dont get mixed up while playing the song.
	-Rhythm: Use all down strums and slide the first three times.
On the fourth and final time, go down, down, pause, down, up, and then
 mute the strings right after the last chord.


Verse 1, and 2:
	-Both verses are exactly the same,
the only difference is you palm mute the first four times,
and play regularly the last eight times. Its easiest to play it
 down, down, pause, down, up, down, up.


Pre-Chorus 1, 2, and 3:
	-This part is pretty easy, just remember to mute the strings
with your playing hand instead of with you palm to get the sound.

Chorus 1, 2, and 3:
	-This part is also pretty easy, play down, down, down, pause...
down, down, down, pause... up, down, down, down, pause...
up, down, down, down, pause.
	On the first chorus, you play the 10 chord three times.
After the first one, mute the strings. Then play the next two,
muting after them too.
	On the second chorus, you play it the same, except for at the end,
when you hold the last chord before going into the solo.
	On the third and final chorus, it gets a little more complex.
After the solo,  you play the pre chorus for the final time.
(You can either hold the last note of the solo for a while,
or just go right into the chorus, whichever you want.)
Then, you wait while the whole band sings "Pour, pour, pour, pour..."
and then you come in with the muting. Try playing down, up, down, down...
down, up, down, down... down, up, down, up.
Then play the regular chorus six times. On the seventh just strum
down hard for the 1 chord and the 6 chord and then up, down, down.


Solo:
	I just broke it up into parts, so when you first learn it,
try playing it in the same parts. Remember, as with a lot of solos,
 its best to alternate pick. When I do say to just down pick,
thats when it sounds better and is probably easier that way.
First, place your ring finger on 6 on the B and your pointer on 4 for the E,
even though you dont play the E yet. Then slide up and play the 6 on E,
and make sure to get that dirty sound.
Then slide back down, easy enough.
Second, set your hand up by barring the E, B, and G with your pointer,
and playing the B with your middle finger.
Play down hammer up... down hammer up... down down.
Third, just use your pointed and middle to alternate the two notes.
 I recommend playing all down strokes for this part.
Fourth, just play, hammer, and play, really easy.
Fifth, play the note, bend, release, and play the note for both parts.
Sixth, pay attention here. To get the right sound, before you bend that whole step,
 wait a split second, its extremely important to play this part with the slight pause.
Seventh, just play and hammer like usual, I usually play all down here but you can alternate.
Eighth, obviously you want to alternate pick here.
 Thats all there is to it.
Ninth, pick, hammer, pick, pick... then pick up down for the two mutes.
Do that twice and then just slide up to end the solo.


Alright, thats the song as much as I know it.
Its really fun to play, and pretty easy too.
Good luck!





Comments


Popular The Maine tabs & chords
Mr. Winter Bass Tabs
I Wanna Love You 1 Chords
Listen To Your Heart Chords
Whoever She Is 1 Chords
Everything I Ask For Tabs
Everything I Ask For 4 Tabs
Misery Tabs
My Heroine 2 Tabs
Saving Grace 2 Tabs
This Is The End Intro Tabs


Song lyrics



↑ Back to top | Tablatures and chords are parodies/interpretations of the original songs. You may use it for private study, scholarship, research or language learning purposes only
© 2014 AZChords.com Contact us | Privacy policy | DMCA | Add/correct tabs | Request tabs | Top 50 tabs