» » »

The Maine, I Wanna Love You Bass tabs (ver.1)

Artists:  A B C D E F G H I J K L M N O P Q R S T U V W X Y Z # 

I Wanna Love You Bass tabs (ver.1)

The Maine Tabs
 Rating:
4/5 (4 votes)
I Wanna Love You lessons Tabs too difficult? Try these video lessons and learn fast
                
Into 1 (0:00–0:23)
(No bass)

Intro 2 (0:24-0:31	x2
G|--------------------|
D|--------------------|
A|--------------------|
E|-2222-222-5555-7777-|

Verse 1 (0:32-0:59	x7
G|----------------------|
D|----------------------|
A|-55555555-------------|
E|-----------4444-/9999-|

(1:00-1:03)	x1
G|-----------------|
D|-----------------|
A|-55555555--------|
E|-----------44-44-|

Chorus (1:04-1:19)	x2
G|-------------------------------------|
D|-------------------------------------|
A|-44444444-22222222-00000000-22222222-|
E|-------------------------------------|

Post Chorus (1:20-1:27)	x2
G|--------------------|
D|--------------------|
A|--------------------|
E|-2222-222-5555-7777-|

Bridge (1:28-1:40)	x3
G|-----------------------|
D|-----------------------|
A|-55555555-------------|
E|------------4444-/9999-|

(1:41-1:44)	x1
G|-----------------|
D|-----------------|
A|-55555555--------|
E|-----------44-44-|

Chorus (1:45-2:00)	x2
G|-------------------------------------|
D|-------------------------------------|
A|-44444444-22222222-00000000-22222222-|
E|-------------------------------------|

Post Chorus (2:01-2:12)
G|----------------|	x4
D|----------------|
A|---555555555555-|
E|-4--------------|

(2:13-2:17)
G|--------------------|	x1
D|--------------------|
A|---555555555555-----|
E|-4---------------4~-|


Bridge (2:18-2:24)
(No bass)

Chorus (2:25-2:48)	x3
G|-------------------------------------|
D|-------------------------------------|
A|-44444444-22222222-00000000-22222222-|
E|-------------------------------------|

(2:49)	x1
G|----|
D|----|
A|----|
E|-4~-|

Outro (2:50-3:04)
(No bass)
            
Submit corrections

comments powered by Disqus
↑ Back to top | The Maine Bass for I Wanna Love You. Lyrics for acoustic guitar and electric guitar. Tablatures and chords are parodies/interpretations of the original songs. You may use it for private study, scholarship, research or language learning purposes only