» » »

The Last Goodnight, Stay Beautiful Tabs (ver.1)

Artists:  A B C D E F G H I J K L M N O P Q R S T U V W X Y Z # 

Stay Beautiful Tabs (ver.1)

The Last Goodnight Tabs
 Rating:
4/5 (7 votes)
Stay Beautiful lessons Tabs too difficult? Try these video lessons and learn fast
                -------------------------------------------------------------------------------
-------------------------------------------------------------------------------


part-I
e|-------------------------|--------------------------------------------------|
B|-------------------------|--------------------------------------------------|
G|-------------------------|--------------------------------------------------|
D|-------------------------|--------------------------------------------------|
A|-------------------5-----|--------------2-1---------4\5-4-2-0------0-1/2----|
E|-5-6-7/----6--5-----5-4--|----5-6-7/---2--------5-------------0-------------|


part- II
e|-------------------------|--------------------------------------------------|
B|------5---2---3--2-------|-------5------------------------------------------|
G|--0---6---2---4--2----2x-|---0---6------------------------------------------|
D|--2---7---4---4--2----2X-|---2---7------------------------------------------|
A|--2---7---4---2--0-------|---2---7------------------------------------------|
E|--0---5---2--------------|---0---5---6--------------------------------------|

repeat part-I n II

part-III
e|----------------------|--------------------------------------------------------|
B|---3-----------2------|--------------------------------------------------------|
G|---4---7---6---2---3x-|---7-7-7-6-6-6-7-7-6-6-6-2------------------------------|
D|---5---7---6---2---3x-|---7-7-7-6-6-6-7-7-6-6-6-2------------------------------|
A|---5---5---4---0------|---5-5-5-4-4-4-5-5-4-4-4-0------------------------------|
E|---3------------------|--------------------------------------------------------|

part-Iv
e|------------------------------------xx---------------------------------------------|
B|------------------------------------xx---------------------------------------------|
G|-----------------------6/7-6--------xx---------------------------------------------|
D|----------------------------5\4-----xx---------------------------------------------|
A|-1---------2--1----------------7----xx---------------------------------------------|
E|---7\----2---------5----------------xx---------------------------------------------|

repeat- II   and finish d song!! okidoki
            
Submit corrections

comments powered by Disqus
↑ Back to top | The Last Goodnight Tabs for Stay Beautiful. Lyrics for acoustic guitar and electric guitar. Tablatures and chords are parodies/interpretations of the original songs. You may use it for private study, scholarship, research or language learning purposes only