» » »

Tjackpounder Tabs (ver.1)

Artists:  A B C D E F G H I J K L M N O P Q R S T U V W X Y Z # 

Tjackpounder Tabs (ver.1)

The Kristet Utseende
Rating:
0/5 (0 votes)

Hard to play? Try these video lessons and learn fast.
                Tuning: Drop D


Guitar 1&2 (0:00)
e----------------------------------------------------|
B----------------------------------------------------|
G----------------------------------------------------|
D----------------------------------------------------|
A--0--1-0--------------------------------------------|
D--0--1-0--------------------------------------------|


Guitar 1 (0:18)
e----------------------------------------------------|
B----------------------------------------------------|
G----------------------------------------------------|
D----------------------------------------------------|
A--0-0----7--5--3-3----7--5--0-0----7--5--3-3--------|
D--0-0----7--5--3-3----7--5--0-0----7--5--3-3--------|

e-----------------------------------------------------|
B-----------------------------------------------------|
G-----------------------------------------------------|
D-----------------------------------------------------|
A--0-0----7--5--3-3----7--5--0-0----7--5--3-3----7--5-|
D--0-0----7--5--3-3----7--5--0-0----7--5--3-3----7--5-|


Guitar 2 (0:18) (play 2x) 
e------------------------------------------------------|
B------------------------------------------------------|
G------------------------------------------------------|
D--12---12--12-12-15--12-15--17---17--15-17--19-17-15--|
A------------------------------------------------------|
D------------------------------------------------------|

e----------------------------------------------------|
B----------------------------------------------------|
G----------------------------------------------------|
D--12---12--12-12-15--12--10--8--10--8--7--7-8-10--8-|
A----------------------------------------------------|
D----------------------------------------------------|
Not correct but something like that :)


Guitar 1&2 (0:33)
e----------------------------------------------------|
B----------------------------------------------------|
G----------------------------------------------------|
D----------------------------------------------------|
A--0--1-0--------------------------0--1-0------------|
D--0--1-0--------------------------0--1-0------------|


Guitar 1 (0:37)(play 2x)
e---------------------------------------------------------------|
B---------------------------------------------------------------|
G---------------------------------------------------------------|
D---------------------------------------------------------------|
A--0---0-0-0---0-3---3-3-3---3-7---7-7-7---7-10---10-9-10-9-7---|
D--0---0-0-0---0-3---3-3-3---3-7---7-7-7---7-10---10-9-10-9-7---|


Guitar 2 (0:45)
e-------------------------------------------------------------------|
B--15--15--15--15--13--13--13--13--17--17--17--17--13--13--15--15---|
G----14--14--14--14--14--14--14--14--14--14--14--14--12--12--12--12-|
D-------------------------------------------------------------------|
A-------------------------------------------------------------------|
D-------------------------------------------------------------------|


Guitar 1&2 (0:54) (play 2x)
e---------------------------------------------------------------|
B---------------------------------------------------------------|
G---------------------------------------------------------------|
D---------------------------------------------------------------|
A--0---0-0-0---0-3---3-3-3---3-7---7-7-7---7-10---10-9-10-9-7---|
D--0---0-0-0---0-3---3-3-3---3-7---7-7-7---7-10---10-9-10-9-7---|


Guitar 1&2 (1:10)
e----------------------------------------------------------|
B----------------------------------------------------------|
G----------------------------------------------------------|
D---------3--2-----------------3--2--5-----------3-2-------|
A--0-2-3--1--0----0-----0-2-3--1--0--3-----0-2-3--1-0--0---|
D--0-2-3----------0-----0-2-3--------------0-2-3-------0---|

e----------------------------------------------|
B----------------------------------------------|
G----------------------------------------------|
D---------3--2----5--5-5-5-5--5--5--5--6--6--6-|
A--0-2-3--1--0----3--3-3-3-3--3--3--3--4--4--4-|
D--0-2-3---------------------------------------|
            
Hard to play? Try these video lessons and learn fast. | Correct




comments powered by Disqus
↑ Back to top | Tablatures and chords are parodies/interpretations of the original songs. You may use it for private study, scholarship, research or language learning purposes only