» » »

The Kristet Utseende, Quinna Tabs (ver.1)

Artists:  A B C D E F G H I J K L M N O P Q R S T U V W X Y Z # 

Quinna Tabs (ver.1)

The Kristet Utseende Tabs
 Rating:
4/5 (4 votes)
Quinna lessons Tabs too difficult? Try these video lessons and learn fast
                this is quinna by TKU. jag har inte listat ut allt men d här ä d mästa av låten 
KÄRLEK TILL TKU...(L)
                      INTRO
E--------------------------------------------------|
A--------------------------------------------------|
D----------------------------9--9------------------|
G--12--9--12--9--5--7--5--7--9--9--5--7--5--7------|
B--------------------------------------------------|
E--------------------------------------------------|


                      VERS
          x1                   x4
E--(0---0)---0---0------------------------|
A--(2---2)---2---2---0---3---5------------|
D--------------------2---5---7------------|
G-----------------------------------------|
B-----------------------------------------|
E-----------------------------------------|


                    REFRÄNG
                 (quinna)                 X2   (quinna hora)
E---0-----3-----5---------0------3-----------|
A---2-----5-----7---------2------5------2----|
D---------------------------------------4----|
G--------------------------------------------|
B--------------------------------------------|
E--------------------------------------------|
            
Submit corrections

comments powered by Disqus
↑ Back to top | The Kristet Utseende Tabs for Quinna. Lyrics for acoustic guitar and electric guitar. Tablatures and chords are parodies/interpretations of the original songs. You may use it for private study, scholarship, research or language learning purposes only