» » »

Pudrad Fjolla Vid KöNingens Hof Bass tabs (ver.1)

Artists:  A B C D E F G H I J K L M N O P Q R S T U V W X Y Z # 

Pudrad Fjolla Vid KöNingens Hof Bass tabs (ver.1)

The Kristet Utseende
Rating:
0/5 (0 votes)

Tabs too difficult? Try these video lessons and learn fast.
                Intro
G --------------------------
D --------------------------
A ----4>-2>-----4>-2>-2-2-2- X2
E -2>--------2>-------------

Vers/Verse
G --------------------------
D --------------------------
A ----4>-2>-----4>-2>-2-2-2- X2
E -2>--------2>-------------

Refräng/Chorus
G ------------------------------------------------
D ------------------------------------------------
A ------------------------------5>-4>-2-2-2-2-2-2>- X2
E -5-5-4-2-0-0-0--0-0-2-4-5-5-5--------------------

Vers/Verse X4
Refräng/Chorus X4

Riff
G -------------------------------------------------      G ---
D -------------------------------------------------      D ---
A -------3-3-3---------------------3-3-3-5-5-5-4--- X2   A ---
E -2-2-2-------2-2-2-0-0-0-0-2-2-2---------------5-      E -2-

Refräng/Chorus X4

Outro
G ----
D ----
A -2/-
E ----
            
Tabs too difficult? Try these video lessons and learn fast.




comments powered by Disqus
↑ Back to top | Tablatures and chords are parodies/interpretations of the original songs. You may use it for private study, scholarship, research or language learning purposes only