» » »

Piss Slickaren FråN Milano Bass tabs (ver.1)

Artists:  A B C D E F G H I J K L M N O P Q R S T U V W X Y Z # 

Piss Slickaren FråN Milano Bass tabs (ver.1)

The Kristet Utseende
Rating:
0/5 (0 votes)

Hard to play? Try these video lessons and learn fast.
                Intro
G ----------------
D ----------------
A -3-3---3------3-
E -----3---0--3---

Vers/verse
G -------------------------------
D -------------------------------
A ---------------------------3--- X4
E -0-0--0-0-0-0-0--0-0-0-0-0---3-

Refräng/Chorus
G --------------------
D --------------------
A -3>-2>-0>--5>-3>-2>-
E --------------------

sl*t Refräng/End Chorus
G -------------------------------      G ---
D -------------------------------      D ---
A ---------------------------3--- X2   A ---
E -0-0--0-0-0-0-0--0-0-0-0-0---3-      E -O-

PAUS/PAUSE

Vers/Verse X4
Refräng/Chorus

Riff
G ----------------------
D -2>-------2>----------
A ---0>-3>-----0>-3>-2>- X2
E ----------------------

Outro
G ----------------------------------------      G ----
D ----------------------------------------      D ----
A ---------------------------------------- X4   A ----
E -0-0--0-0-0-0--0-0-0-0--0-3-3-3-3-3-3-3-      E -0>-
            
Hard to play? Try these video lessons and learn fast. | Correct




comments powered by Disqus
↑ Back to top | Tablatures and chords are parodies/interpretations of the original songs. You may use it for private study, scholarship, research or language learning purposes only