» » »

The Kristet Utseende, Moffegreven Bass tabs (ver.1)

Artists:  A B C D E F G H I J K L M N O P Q R S T U V W X Y Z # 

Moffegreven Bass tabs (ver.1)

The Kristet Utseende Tabs
 Rating:
4/5 (4 votes)
Moffegreven lessons Tabs too difficult? Try these video lessons and learn fast
1
                intro
G --------------
D --------------
A -----------1>- X2
E -0--0-2-3-----

G ------------------------------
D ------------------------------
A ---------------------------1>- X2
E -0--0-0-0--0-0--0-0--0-2-3----

Vers/Verse
G --------
D --------
A -------- X2
E -0--2-3-


Refräng/Chorus
G ----------
D ----------
A ----3>-0>- X2
E -0>-------

G ---------------------------------
D ---------------------------------
A ---------3-3-3-3-0-0-0-0-0-0-0-0- X2
E -0-0-0-0-------------------------

Allting en gång till.
Everything one more time.

Outro
G ---------------------------------      G ----
D ---------------------------------      D ----
A ---------3-3-3-3-0-0-0-0-0-0-0-0- X2   A ----
E -0-0-0-0-------------------------      E -0>-
            
Submit corrections

comments powered by Disqus
↑ Back to top | The Kristet Utseende Bass for Moffegreven. Lyrics for acoustic guitar and electric guitar. 1 Tablatures and chords are parodies/interpretations of the original songs. You may use it for private study, scholarship, research or language learning purposes only