» » »

The Kristet Utseende, Kairos Fjollor Bass tabs (ver.1)

Artists:  A B C D E F G H I J K L M N O P Q R S T U V W X Y Z # 

Kairos Fjollor Bass tabs (ver.1)

The Kristet Utseende Tabs
Rating:
0/5 (0 votes)
Kairos Fjollor lessons Tabs too difficult? Try these video lessons and learn fast
                Intro
G -----------------------------------------
D -----------------------------------------
A ---------------------------------2---2---
E -0-0-0-0-0-0-0-0-0-0-0-0-0-0-0-0---5---5-

G --------------------- )
D --------------------- )
A --------------------- ) X2
E -5-5-4-4-4-5-5-4-4-4- )

Vers/Verse
G -----------------------------------------
D -----------------------------------------
A ---------------------------------2---2---
E -0-0-0-0-0-0-0-0-0-0-0-0-0-0-0-0---5---5-

G --------------------- 
D --------------------- 
A --------------------- 
E -5-5-4-4-4-5-5-4-4-4- 

G -----------------------------------------
D -----------------------------------------
A ---------------------------------2---2---
E -0-0-0-0-0-0-0-0-0-0-0-0-0-0-0-0---5---5-

G -----
D -----
A -----
E -5-5-

Refräng/Chorus
G -------------------------------------
D -------------------------------------
A -3-3-3-3-2-2-2-2---------------------
E -----------------5-5-4-4-4-5-5-4-4-4-

G ------------------------------------
D ------------------------------------
A -3-3-3-3-2-2-2-2-5-5-------5-5------
E ---------------------4-4-4-----4-4--

G -------------------------------------
D -------------------------------------
A -3-3-3-3-2-2-2-2---------------------
E -----------------5-5-4-4-4-5-5-4-4-4-

G -------------------------------------------------
D -------------------------------------------------
A -3-3-3-3-2-2-2-2-5-5-5-5-5-5-5-5-----------------
E ---------------------------------3-3-3-3-3-3-3-3-

Vers/Verse
G -----------------------------------------
D -----------------------------------------
A ---------------------------------2---2---
E -0-0-0-0-0-0-0-0-0-0-0-0-0-0-0-0---5---5-

G --------------------- )
D --------------------- )
A --------------------- ) X3
E -5-5-4-4-4-5-5-4-4-4- )

G -----------------------------------------
D -----------------------------------------
A ---------------------------------2---2---
E -0-0-0-0-0-0-0-0-0-0-0-0-0-0-0-0---5---5-

G -----
D -----
A -----
E -5-5-

Refräng/Chorus

Outro
G ------------------
D ------------------
A ------------------
E -0-0--0-0--0-0-0>-

G ---------------------------------
D ---------------------------------
A ---------------------------------
E -0-0-0-0-0-0-0-0-0-0-0-0-0-0-0-0-

G --------------------------------- )
D --------------------------------- )
A -3-3-3-3-3-3-3-3----------------- ) X2
E -----------------5-5-5-5-5-5-5-5- )

G -------------
D -------------
A -------3>----
E -0>-0>----5>-

G ---------------------------------
D ---------------------------------
A ---------------------------------
E -0-0-0-0-0-0-0-0-0-0-0-0-0-0-0-0-

G --------------------------------- 
D --------------------------------- 
A -3-3-3-3-3-3-3-3-----------------  
E -----------------5-5-5-5-5-5-5-5- 

G ---------------
D ---------------
A ---------------
E -0-0--0-0--0-0-
G ---------------------------------
D ---------------------------------
A ---------------------------------
E -0-0-0-0-0-0-0-0-0-0-0-0-0-0-0-0-

G --------------------------------- 
D --------------------------------- 
A -3-3-3-3-3-3-3-3-----------------  
E -----------------5-5-5-5-5-5-5-5- 

G ----------------
D ----------------
A ----------------
E -0-0--0-0--0-0>-
            
Submit corrections

comments powered by Disqus
↑ Back to top | The Kristet Utseende Bass for Kairos Fjollor. Lyrics for acoustic guitar and electric guitar. Tablatures and chords are parodies/interpretations of the original songs. You may use it for private study, scholarship, research or language learning purposes only