» » »

Holk Bass tabs (ver.1)

Artists:  A B C D E F G H I J K L M N O P Q R S T U V W X Y Z # 

Holk Bass tabs (ver.1)

The Kristet Utseende
Rating:
0/5 (0 votes)
Tabs too difficult? Try these video lessons and learn fast.
                Intro
G ----------------------   G -----------------
D ----------------------   D -----------------
A ------PLAY ALOT ------   A ----------------- X4
E -0--0-RÖJ SOM FAN--0>-   E -0-0-5-5-3-3-6-6-

Vers/Verse
G -----------------
D -----------------
A ----------------- X4
E -0-0-5-5-3-3-6-6-

Regräng/Chorus
G -----------------
D -----------------
A -0-0-0-0-1-1----- X4
E -------------3-3-

Vers/verse X4
Refräng/Chorus X4

Riff
G ---------------------------------
D ---------------------------------
A ---------3-3-3-3----------------- X3
E -0-0-0-0---------5-5-5-5-3-3-3-3-

G ---------------------------------
D ---------------------------------
A ---------3-3-3-3-----------------
E -0-0-0-0---------5-5-5-5-3-3-3-3-

Outro
G -------------------------------
D -------------------------------
A ---PLAY ALOT ON THIS TONE------
E -0-SPELA SOM FAN PÅ TONEN-0--0-
            
Tabs too difficult? Try these video lessons and learn fast.


comments powered by Disqus
↑ Back to top | Tablatures and chords are parodies/interpretations of the original songs. You may use it for private study, scholarship, research or language learning purposes only