» » »

The Kristet Utseende, En Fet JäVla Holk Bass tabs (ver.1)

Artists:  A B C D E F G H I J K L M N O P Q R S T U V W X Y Z # 

En Fet JäVla Holk Bass tabs (ver.1)

The Kristet Utseende Tabs
 Rating:
4/5 (4 votes)
En Fet JäVla Holk lessons Tabs too difficult? Try these video lessons and learn fast
1
                Intro
G ----------------      G ---
D ----------------      D ---
A ---------------- X4   A ---
E -5-5-5--5-5-5-5-      E -5-

G ----------------------------------      G ---
D ----------------------------------      D ---
A ---------3-3--3-3---------3-3-3-3- X2   A ---
E -5-4-6-5----------5-4-6-5---------      E -5-

Vers/Verse
G -----------------------------------------------------------------
D -----------------------------------------------------------------
A -------------------------------------------------5-5-5--5-5-5-5>- X2
E -5-5-5--5-5-5-5>-3-3-3--3-3-3-3>-0-0-0--0-0-0-0>-----------------

G ----------------------------------   G ---
D ----------------------------------   D ---
A ---------3-3--3-3---------3-3-3-3-   A ---
E -5-4-6-5----------5-4-6-5---------   E -5-

Refräng/Chorus
G -------------------------------------------------------------
D ----------------2-2-2--2-2-2-2-------------------------------
A -5-5-5--5-5-5-5----------------------------------------------
E -------------------------------3-3-3--3-3-3-3-3-3-3--3-3-3-3-

G -------------------------------------------------------------
D ----------------2-2-2--2-2-2-2-------------------------------
A -5-5-5--5-5-5-5----------------3-3-3--3-3-3-3-3-3-3--3-3-3-3-
E -------------------------------------------------------------

G -------------------------------------------------------------
D ----------------2-2-2--2-2-2-2-------------------------------
A -5-5-5--5-5-5-5----------------------------------------------
E -------------------------------3-3-3--3-3-3-3-3-3-3--3-3-3-3-

G -------------------------------------
D ----------------2-2-2--2-2-2-2-------
A -5-5-5--5-5-5-5----------------3>-5>-
E -------------------------------------

Stick
G ----------------------------------      G ---
D ----------------------------------      D ---
A ---------3-3--3-3---------3-3-3-3- X2   A ---
E -5-4-6-5----------5-4-6-5---------      E -5-

Vers/Verse
G -----------------------------------------------------------------
D -----------------------------------------------------------------
A -------------------------------------------------5-5-5--5-5-5-5>- X2
E -5-5-5--5-5-5-5>-3-3-3--3-3-3-3>-0-0-0--0-0-0-0>-----------------

G ----------------------------------   G ---
D ----------------------------------   D ---
A ---------3-3--3-3---------3-3-3-3-   A ---
E -5-4-6-5----------5-4-6-5---------   E -5-

Outro
G -------------------------------------------------------------
D ----------------2-2-2--2-2-2-2-------------------------------
A -5-5-5--5-5-5-5----------------------------------------------
E -------------------------------3-3-3--3-3-3-3-3-3-3--3-3-3-3-

G -------------------------------------------------------------
D ----------------2-2-2--2-2-2-2-------------------------------
A -5-5-5--5-5-5-5----------------3-3-3--3-3-3-3-3-3-3--3-3-3-3-
E -------------------------------------------------------------

G -------------------------------------------------------------
D ----------------2-2-2--2-2-2-2-------------------------------
A -5-5-5--5-5-5-5----------------------------------------------
E -------------------------------3-3-3--3-3-3-3-3-3-3--3-3-3-3-

G -------------------------------------------------------------
D ----------------2-2-2--2-2-2-2-------------------------------
A -5-5-5--5-5-5-5----------------3-3-3--3-3-3-3-5-5-5--5-5-5-5-
E -------------------------------------------------------------

G ---------------------------------------
D ---------------------------------------
A ---------------------------------------
E -5-5-5--5-5-5-5-5--5-5-5-5-5--5-5-5-5>-
            
Submit corrections

comments powered by Disqus
↑ Back to top | The Kristet Utseende Bass for En Fet JäVla Holk. Lyrics for acoustic guitar and electric guitar. 1 Tablatures and chords are parodies/interpretations of the original songs. You may use it for private study, scholarship, research or language learning purposes only