» » »

DjäVulsvingar ÖVer Kapellet Bass tabs (ver.1)

Artists:  A B C D E F G H I J K L M N O P Q R S T U V W X Y Z # 

DjäVulsvingar ÖVer Kapellet Bass tabs (ver.1)

The Kristet Utseende
Rating:
0/5 (0 votes)

Tabs too difficult? Try these video lessons and learn fast.
                Intro
G -------------------------
D -------------------------
A -5--5-8-7-7-8--8-7-7-8-7- X8
E -------------------------

G ---------------------      G ----
D ---------------------      D ----
A -5>-7>-4>-8--8-8-8-7- X2   A -5>-
E ---------------------      E ----

PAUS/PAUSE

G -----------------------------
D ---------------------7-------
A -5>-7>-8-7-5-7-4>-5>---8-7-4- X2
E -----------------------------

G ---------------------------------
D ---------------------------------
A -5-5-5-5-5-5-5-5-5-5-5-5-7-7-7-7-
E ---------------------------------

G --------------------------------- )      G ----
D --------------------------------- )      D ----
A -4-4-4-4-4-4-4-4-8-8-8-8-7-7-7-7- ) X2   A -5>-
E --------------------------------- )      E ----

Vers/Verse
G ---------------------------------
D ---------------------------------
A -5-5-5-5-5-5-5-5-7-7-7-7-7-7-7-7-
E ---------------------------------

G --------------------------------- )
D -5-5-5-5-5-5-5-5----------------- )
A -----------------8-8-8-8-7-7-7-7- ) X4
E --------------------------------- )

Riff
G --------------------      G ---------
D ----------------5-5-      D ---------
A -5-5--7-7--8-8------ X2   A -5-5-5-5- X2
E --------------------      E ---------

Refräng/Chorus
G ---------------------------------
D ---------------------------------
A -5-5-5-5-5-5-5-5-8-8-8-8-8-8-8-8-
E ---------------------------------

G --------------------------------- )
D --------------------------------- )
A --------------------------------- ) X2
E -3-3-3-3-3-3-3-3-5-5-5-5-5-5-5-5- )

G --------------------   G ---------
D ----------------5-5-   D ---------
A -5-5--7-7--8-8------   A -5-5-5-5- X2
E --------------------   E ---------

Vers/verse X2

G --------------------   G ---------
D ----------------5-5-   D ---------
A -5-5--7-7--8-8------   A -5-5-5-5- X2
E --------------------   E ---------

Refräng/Chorus X4

Outro
G --------------------------
D ----------------5-5-------
A -5-5--7-7--8-8-------5-5>-
E --------------------------
            
Tabs too difficult? Try these video lessons and learn fast.


comments powered by Disqus
↑ Back to top | Tablatures and chords are parodies/interpretations of the original songs. You may use it for private study, scholarship, research or language learning purposes only