» » »

The Kristet Utseende, BöG I Buffalo Bass tabs (ver.1)

Artists:  A B C D E F G H I J K L M N O P Q R S T U V W X Y Z # 

BöG I Buffalo Bass tabs (ver.1)

The Kristet Utseende Tabs
 Rating:
4/5 (4 votes)
BöG I Buffalo lessons Tabs too difficult? Try these video lessons and learn fast
                Intro
G -----------------
D -----------------
A -----------------
E -5-5-5-5-5-5-303-

Vers/Verse
G ----------------
D ----------------
A ---------------- X4
E -5-3-0-3-5-3-0>-

Refräng/Chorus
G -----------------
D -----------------
A -5-5-1-1---------
E ---------3-3-5-5-

G ----------------- )
D ----------------- )
A -5-5-----5-5----- ) X2
E -----1-1-----1-1- )

Vers/Verse X4
Refräng/Chorus X4

Outro
G ---
D ---
A ---
E -1-
            
Submit corrections

comments powered by Disqus
↑ Back to top | The Kristet Utseende Bass for BöG I Buffalo. Lyrics for acoustic guitar and electric guitar. Tablatures and chords are parodies/interpretations of the original songs. You may use it for private study, scholarship, research or language learning purposes only