>
 >
See The Sun

See The Sun Guitar Tabs

The Kooks - See The Sun chords, tabs, tablatures, lyrics

Guitar lessons | Add/correct | Request | Top 50 tabs Artists:  A B C D E F G H I J K L M N O P Q R S T U V W X Y Z 0-9

See The Sun Guitar Tabs – The Kooks

CD, Sheet music, Poster

Do you like See The Sun? Share with your friends now
Bass TabsChordsChords v2Chords v3TabsTabs v2Ukulele
Track no.: 1
Note: I do not own this song or any part of it. All rights go to "The Kooks".

|---------------------------------------------------------|
|-11b14----11---11p9h11-11---11b14r----11p9----11----11---|
|-------------------------------------------10----10------|
|---------------------------------------------------------|
|---------------------------------------------------------|
|---------------------------------------------------------|

|---------------------------------------------------------|
|-----11v----11-14bv-14-14-14~--14-16--------------11-----|
|-11v-----11--------------------------13-15-13-10~--------|
|---------------------------------------------------------|
|---------------------------------------------------------|
|---------------------------------------------------------|

|---------------------------------------------------------|
|-------11/-----------------------------------------------|
|-11v~--11/-----------------------------------------------|
|---------------------------------------------------------|
|---------------------------------------------------------|

|---------------------------------------------------------|
|---------------------------------------------------------|
|-------------------------11-------11------12----12-------|
|-------------------10/11----11-10~----10-----10----10----|
|---------------------------------------------------------|
|---------------------------------------------------------|
|---------------------------------------------------------|

|---------------------------------------------------------|
|-----11~-----11~---------11-------11------12----12-------|
|-11~-----11~-------10/11----11-10~----10-----10----10----|
|---------------------------------------------------------|
|---------------------------------------------------------|
|---------------------------------------------------------|

|---------------------------------------------------------|
|-----11~-----11~---------11-------11------12----12-------|
|-11~-----11~-------10/11----11-10~----10-----10----10----|
|---------------------------------------------------------|
|---------------------------------------------------------|
|---------------------------------------------------------|

|-11~----11--------13~-------13----14~-----14-13~---------|
|--------------------------------------11~--------9-11b14-|
|-----11----11~-----------13----13------------------------|
|---------------------------------------------------------|
|---------------------------------------------------------|
|---------------------------------------------------------|

|---------------------------------9h11-------9h11---------|
|-11--11p9h11/12--11--11b14-11b14------9h11~------9h11p9--|
|---------------------------------------------------------|
|---------------------------------------------------------|
|---------------------------------------------------------|
|---------------------------------------------------------|

|---------------------------------------------------------|
|-----11v----11-14bv-14-14-14~--14-16--------------11-----|
|-11v-----11--------------------------13-15-13-10~--------|
|---------------------------------------------------------|
|---------------------------------------------------------|
|---------------------------------------------------------|

|---------------------------------------------------------|
|---------------------------------------------------------|
|---------------------3----------------------3h6p3--------|
|-----------1-4-1~--1---1~-------------------------6------|
|-------1-4----------------1~-4---1-2-4/6-----------------|
|-2~--4-------------------------4-------------------------|

|---------------------------------------------------------|
|-----------4-7-4~---4/11-------11----12----12------------|
|-------3-6---------------11-10----10----10----10---------|
|-4~--6---------------------------------------------------|
|---------------------------------------------------------|
|---------------------------------------------------------|

|---------------------------------------------------------|
|-----11~-----11~---------11-------11------12----12-------|
|-11~-----11~-------10/11----11-10~----10-----10----10----|
|---------------------------------------------------------|
|---------------------------------------------------------|
|---------------------------------------------------------|

|---------------------------------------------------------|
|-----11~-----11~---------11-------11------12----12-------|
|-11~-----11~-------10/11----11-10~----10-----10----10----|
|---------------------------------------------------------|
|---------------------------------------------------------|
|---------------------------------------------------------|

|-11~----11--------13~-------13----14~-----14---13~-------|
|--------------------------------------11~-----------9----|
|-----11----11~-----------13----13------------------------|
|---------------------------------------------------------|
|---------------------------------------------------------|
|---------------------------------------------------------|

|-13-11~----11-11~----11p9h11~------11~-----13---13-------|
|--------7~---------7------------7~-----7/9----9----9-----|
|---------------------------------------------------------|
|---------------------------------------------------------|
|---------------------------------------------------------|
|---------------------------------------------------------|

|-6---6-6-6---7---7-7-7--9---9--9--9-----------9--9-------|
|-6---6-6-6---7---7-7-7--9---9--9--9----11-11--9--9-------|
|-6---6-6-6---8---8-8-8--10--10-10-10---11-11--10-10------|
|-8---8-8-8---9---9-9-9--11--11-11-11---11-11--11-11------| x4
|-8---8-8-8---9---9-9-9--11--11-11-11---9--9---11-11------|
|-6---6-6-6---7---7-7-7--9---9--9--9-----------9--9-------|

|---------------------------------------------------------|
|-/11-11-11p9---------------------------------------------|
|-------------11-10--10~----10-10h11-10----11-------------|
|--------------------11~-11-------------11----11~-----11v-|
|--------------------------------------------------13-----|
|---------------------------------------------------------|

|---------------------------------------------------------|
|---------------------------------------------------------|
|----------------------------------------------11-13v-----|
|----11-13-13vv----11-13vv----11-13vv----13v--------------|
|-13------------13---------13---------13------------------|
|---------------------------------------------------------|

|---------------------------------------------------|
|--------------14-16p14----16-----------------------|
|-15p13----15~----------15--------------------------|
|-------16------------------------11h13p11----11h13~|
|------------------------------13----------13-------|
|---------------------------------------------------|

|-----------------------------|
|-----11----12----13----14----|
|--11----11----12----13----14-|
|-----------------------------|
|-----------------------------|
|-----------------------------|

|-6---6-6-6---7---7-7-7--9---9--9--9-----------9--9-------|
|-6---6-6-6---7---7-7-7--9---9--9--9----11-11--9--9-------|
|-6---6-6-6---8---8-8-8--10--10-10-10---11-11--10-10------|
|-8---8-8-8---9---9-9-9--11--11-11-11---11-11--11-11------| x4
|-8---8-8-8---9---9-9-9--11--11-11-11---9--9---11-11------|
|-6---6-6-6---7---7-7-7--9---9--9--9-----------9--9-------|

|--------------------------------------------------------------------------|
|-\11~---11p9h11-b14r11-b14r11---11r9-11/12\11~--9----11----12----12-------|
|--------------------------------------------------10----10----10----10-11-|
|--------------------------------------------------------------------------|
|--------------------------------------------------------------------------|
|--------------------------------------------------------------------------|





Comments


Popular The Kooks tabs & chords
Junk Of The Heart Happy 2 Bass Tabs
You Dont Love Me 2 Bass Tabs
Down To The Market 1 Chords
Lonely Cat Chords
Ooh La 5 Chords
Ask Me Tabs
Luby Lou Tabs
Naive 2 Tabs
She Moves In Her Own Way Ukulele
Shine On Ukulele


Song lyrics



↑ Back to top | Tablatures and chords are parodies/interpretations of the original songs. You may use it for private study, scholarship, research or language learning purposes only
© 2014 AZChords.com Contact us | Privacy policy | DMCA | Add/correct tabs | Request tabs | Top 50 tabs