» » »

The Kooks, If Only Bass tabs (ver.1)

Artists:  A B C D E F G H I J K L M N O P Q R S T U V W X Y Z # 

If Only Bass tabs (ver.1)

The Kooks Tabs
 Rating:
4/5 (4 votes)
If Only lessons Tabs too difficult? Try these video lessons and learn fast
1
                

Tuning:Standard

A Nice song by The Kooks with a nice Bass line.
I hope I'd figure it out right. If not please comment and correct.
Much fun and please rate. :)


Intro:
G|-----------------|
D|-----------------|
A|-2-~----------2--|
E|-----------------|

Verse:
G|-----4-------------7-------9-6h7p6-------------|
D|---4---------4-------7-------------9-----------|
A|-2---------4---4/5-----5/7---------------------|x4
E|-------0h2-------------------------------------|

Chorus:                        
                      
                         
G|--11h12p11-------------------------|
D|-----------12-11h12p11-------------|
A|-----------------------12-10-------|
E|-----------------------------10----|

G|-11h12p11----11------|
D|----------12---------|
A|---------------------|
E|---------------------|

G|--11h12p11-------------------------|
D|-----------12-11h12p11-------------|
A|-----------------------12-10-------|
E|-----------------------------10----|

G|-11h12p11------------|
D|------------12~------|
A|---------------------|
E|---------------------|


Verse:
G|-----4-------------7-------9-6h7p6-------------|
D|---4---------4-------7-------------9-----------|
A|-2---------4---4/5-----5/7---------------------|x3
E|-------0h2-------------------------------------|

Chrous:
G|--11h12p11-------------------------|
D|-----------12-11h12p11-------------|
A|-----------------------12-10-------|
E|-----------------------------10----|

G|-11h12p11----11------|
D|----------12---------|
A|---------------------|
E|---------------------|

G|--11h12p11-------------------------|
D|-----------12-11h12p11-------------|
A|-----------------------12-10-------|
E|-----------------------------10----|

G|-11h12p11------------|
D|------------12~------|
A|---------------------|
E|---------------------|

Solo
G|-----4-----------7-----7/9--6h7p6----|
D|---4---------4-----7-----------------|
A|-2---------4---4-----5---------------|
E|-------0h2---------------------------|

G|-----------------7-----7/9--6h7p6----|
D|-9-----------4-----7---------------9\|
A|---9-------4---4-----5---------------|
E|-----7--0h2--------------------------|

Verse:
G|-----4-------------7-------9-6h7p6-------------|
D|---4---------4-------7-------------9-----------|
A|-2---------4---4/5-----5/7---------------------|x3
E|-------0h2-------------------------------------|

Chrous:  x2

G|--11h12p11-------------------------|
D|-----------12-11h12p11-------------|
A|-----------------------12-10-------|
E|-----------------------------10----|

G|-11h12p11----11------|
D|----------12---------|
A|---------------------|
E|---------------------|

G|--11h12p11-------------------------|
D|-----------12-11h12p11-------------|
A|-----------------------12-10-------|
E|-----------------------------10----|

G|-11h12p11------------|
D|------------12~------|
A|---------------------|
E|---------------------|



| /  slide up
| \  slide down
| h  hammer-on
| p  pull-off
| ~  vibrato
| +  harmonic
| x  Mute note



Questions?
            
Submit corrections

comments powered by Disqus
↑ Back to top | The Kooks Bass for If Only. Lyrics for acoustic guitar and electric guitar. 1 Tablatures and chords are parodies/interpretations of the original songs. You may use it for private study, scholarship, research or language learning purposes only