» » »

The Kooks, I Already Miss You Tabs (ver.1)

Artists:  A B C D E F G H I J K L M N O P Q R S T U V W X Y Z # 

I Already Miss You Tabs (ver.1)

The Kooks Tabs
 Rating:
4/5 (4 votes)
I Already Miss You lessons Tabs too difficult? Try these video lessons and learn fast
                
Tuning:Standard

Chords

e|--6----9-----4----2----2----2----------------------------------------------|
B|--7----11----6----4----2----2----------------------------------------------|
G|--8----11----6----4----3----3----------------------------------------------|
D|--8----11----6----4----4----4----------------------------------------------|
A|--6----9-----4----2----4----4----------------------------------------------|
E|--6----9-----4----2----2----1----------------------------------------------|


Verse:

e|----6-6-6-6-6-6--9--9----------9--9--9--9--9---4-4--2-2-2-2--9-------------|
B|----7-7-7-7-7-7--9--12/11------11-11-11-11-11--6-6--4-4-4-4--9--12/11------|
G|--8-8-8-8-8-8-8--11-11----11---11-11-11-11-11--6-6--4-4-4-4--11-11----11---|
D|--8-8-8-8-8-8-8--11-11------11-11-11-11-11-11--6-6--4-4-4-4--11-11-------11|
A|--6-6-6-6-6-6-6--9--9----------9--9--9--9--9---4-4--2-2-2-2--9--9----------|
E|--6-6-6-6-6-6-6--9--9----------9--9--9--9--9---4-4--2-2-2-2--9--9----------|
                                                                                  x2
e|--9--9--9--9--9------------------------------------------------------------|
B|--11-11-11-11-11-----------------------------------------------------------|
G|--11-11-11-11-11-----------------------------------------------------------|
D|--11-11-11-11-11-----------------------------------------------------------|
A|--9--9--9--9--9------------------------------------------------------------|
E|--9--9--9--9--9------------------------------------------------------------|


 1st Chorus:

e|--9--9--9--9---4-4-4-4--2-2-2-2-2-2-2-2------------------------------------|
B|--11-11-11-11--6-6-6-6--4-4-4-4-4-4-4-4------------------------------------|
G|--11-11-11-11--6-6-6-6--4-4-4-4-4-4-4-4------------------------------------|    x2
D|--11-11-11-11--6-6-6-6--4-4-4-4-4-4-4-4------------------------------------|
A|--9--9--9--9---4-4-4-4--2-2-2-2-2-2-2-2------------------------------------|
E|--9--9--9--9---4-4-4-4--2-2-2-2-2-2-2-2------------------------------------|

e|--9--9--9--9---4-4-4-4--2-2-2-2-2-2-2-2--4-4-4-4--2-2-2-2--2-2-2-2-2-2-2-2-|
B|--11-11-11-11--6-6-6-6--4-4-4-4-4-4-4-4--6-6-6-6--4-4-4-4--2-2-2-2-2-2-2-2-|
G|--11-11-11-11--6-6-6-6--4-4-4-4-4-4-4-4--6-6-6-6--4-4-4-4--3-3-3-3-3-3-3-3-|    
D|--11-11-11-11--6-6-6-6--4-4-4-4-4-4-4-4--6-6-6-6--4-4-4-4--4-4-4-4-4-4-4-4-|
A|--9--9--9--9---4-4-4-4--2-2-2-2-2-2-2-2--4-4-4-4--2-2-2-2--4-4-4-4-4-4-4-4-|
E|--9--9--9--9---4-4-4-4--2-2-2-2-2-2-2-2--4-4-4-4--2-2-2-2--2-2-2-2-2-2-2-2-|

e|--2-2-2-2------------------------------------------------------------------|
B|--2-2-2-2------------------------------------------------------------------|
G|--3-3-3-3------------------------------------------------------------------|
D|--4-4-4-4------------------------------------------------------------------|
A|--4-4-4-4------------------------------------------------------------------|
E|--1-1-1-1------------------------------------------------------------------|

Repeat verse

 2nd Chorus:

e|--9--9--9--9---4-4-4-4--2-2-2-2-2-2-2-2------------------------------------|
B|--11-11-11-11--6-6-6-6--4-4-4-4-4-4-4-4------------------------------------|
G|--11-11-11-11--6-6-6-6--4-4-4-4-4-4-4-4------------------------------------|    x2
D|--11-11-11-11--6-6-6-6--4-4-4-4-4-4-4-4------------------------------------|
A|--9--9--9--9---4-4-4-4--2-2-2-2-2-2-2-2------------------------------------|
E|--9--9--9--9---4-4-4-4--2-2-2-2-2-2-2-2------------------------------------|

e|--9--9--9--9---4-4-4-4--2-2-2-2-2-2-2-2--4-4-4-4--2-2-2-2--2---------------|
B|--11-11-11-11--6-6-6-6--4-4-4-4-4-4-4-4--6-6-6-6--4-4-4-4--2---------------|
G|--11-11-11-11--6-6-6-6--4-4-4-4-4-4-4-4--6-6-6-6--4-4-4-4--3---------------|    
D|--11-11-11-11--6-6-6-6--4-4-4-4-4-4-4-4--6-6-6-6--4-4-4-4--4---------------|
A|--9--9--9--9---4-4-4-4--2-2-2-2-2-2-2-2--4-4-4-4--2-2-2-2--4---------------|
E|--9--9--9--9---4-4-4-4--2-2-2-2-2-2-2-2--4-4-4-4--2-2-2-2--2---------------|


| /  slide up
| \  slide down
| h  hammer-on
| p  pull-off
| ~  vibrato
| +  harmonic
| x  Mute note
            
Submit corrections

comments powered by Disqus
↑ Back to top | The Kooks Tabs for I Already Miss You. Lyrics for acoustic guitar and electric guitar. Tablatures and chords are parodies/interpretations of the original songs. You may use it for private study, scholarship, research or language learning purposes only