» » »

The Kooks, Always Where I Need To Be Tabs (ver.2)

Artists:  A B C D E F G H I J K L M N O P Q R S T U V W X Y Z # 

Always Where I Need To Be Tabs (ver.2)

The Kooks Tabs
Rating:
5/5 (5 votes)
Always Where I Need To Be lessons Tabs too difficult? Try these video lessons and learn fast
                Always where I need to be
Capo on 2
A   002220
Bm  224432
F#m 244222
D   x5777x
A*  577655
Bm* 799777

Intro:
A open       A*           Bm*  F#m*          D*   A*              Bm*   F#m*

            D*   A*              Bm*  F#m*          D*

Verse:
She don't know who she is
-----------------------------|
-2---------------------------|
-2---------------------------|
-2---------------------------|
-0-----------------9--9////4-|
-------------------7--7////2-|
        Oh I can take her anywhere
--------------------------------------------|
--------------------------------------------|
--------------------------------------------|
-x--x---x--x--x---x----x--------------------|
-x--x---x--x--x---x----x-------4////7--7--7-|
-x--x---x--x--x---x----x-------2////5--5--5-|

Do whatever comes naturally to you
---------------------------------------|
---------------------------------------|
---------------------------------------|
-7-------------------------------------|
-7-----7-------------4--4--x--x--4---4-|
-5-----5-------------2--2--x--x--2---2-|
A
you know she just don't care
A
you know she just don't care

D*                          F#m*
'cause I am always where I need to be
      D*                          F#m*
and I always thought I would end up with you
           A*
eventually

               D*      F#m*      D*         A*              D*
do   dododo do dodod  ododo   dododododo


Now I see her again
--------------------------|
-2-------------//10----10-|
-----------------11-------|
--------------------------|
--------------------------|
--------------------------|
I asked to be a humming bird
Whisper words in her ear
--------------------------|
--------------------------|
-6---------------6--------|
-7----------7--7---7---7--|
-7-------------------9----|
-5------------------------|

Oh now you know I just don't care
---------------------------------|
-------------------------------2-|
-------------------------------2-|
---7--7--7--7--7--6--6--6--6---2-|
-------------------------------0-|
---------------------------------|
A
you know she just don't care
A           D              F#m
'cause I am always where I need to be
      D                          F#m
and I always thought I would end up with you

eventually

               D*      F#m*      D*         A*              D*
do   dododo do dodod  ododo   dododododo
                                            -5--4--2----0----------|
                                            ---------------3--2--3-|
                                            -----------------------|
                                            -----------------------|
                                            -----------------------|
                                            -----------------------|
Solo:
--------------2---0---0---0-----2--0-------------------------------------|
-2----1-2-1-2-----------------0------2--1--0-----------------------------|
----------------------------------------------2--4bbb--2--4--4bbb---6bbb-|
-------------------------------------------------------------------------|
-------------------------------------------------------------------------|
-------------------------------------------------------------------------|

-----------------------------------------'-14--12---------------|
---------12--14--14bbb---12--14---12--10-'-------14-13--12------|
7b--7b-----------------------------------'------------------14--|   2 times
-----------------------------------------'----------------------|
-----------------------------------------'----------------------|
-----------------------------------------'----------------------|

D*                        F#m*
I'm a man, I'm a man, oh I'm a man on the scene
D*                   F#m*
I'm a man and I can be so obscene
D* (down)                         F#m* (down)
because I always think that I know how to be
      D* (down)                  F#m* (down)
but I always thought I would end up with you
E*
eventually

               D*      F#m*      D*        A*              D*
do   dododo do dodod  ododo   dododododo

A*                     E*   F#m*                    E*   A*
I'm a man, I'm a man, oh I'm a man on the scene
D*                    F#m*        D*        A*
I'm a man, I'm a man, I can be so obscene

Yours, JK
            

comments powered by Disqus
↑ Back to top | The Kooks Tabs for Always Where I Need To Be. Lyrics for acoustic guitar and electric guitar. Tablatures and chords are parodies/interpretations of the original songs. You may use it for private study, scholarship, research or language learning purposes only