» » »

Vil Du Vrra Med M Hjem Tabs (ver.1)

Artists:  A B C D E F G H I J K L M N O P Q R S T U V W X Y Z # 

Vil Du Vrra Med M Hjem Tabs (ver.1)

The Kids
Rating:
5/5 (2 votes)

Hard to play? Try these video lessons and learn fast.
                Intro:
    v^V               V^V                 V^V              V ^ V
|----------------------------------------------------------------|
|---777-5-------7-5---555-----------5-3---777-5-------7-5--------|
|---------7-6-4-----------7-6-------------------7-6-4------7-6-7-|
|------------------------------9-7-------------------------------|
|----------------------------------------------------------------|
|----------------------------------------------------------------|

|-------------------------------------------|
|---7--7--8--8-10-s12--10--10-8-7--8--8-7-8-|
|-------------------------------------------|
|-------------------------------------------|
|-------------------------------------------|
|-------------------------------------------|


D	          G           	
Fæsten' e' snart over,
            A	            D
det blir stille mørkt og trist
Hm	      Em
musikken ebbe' ut
	     A	
og aill' går hjem til sitt.
      

       D
Men nå'n ska' på et
G
nachapiel,
        A	  D
og dem træng en gitarist
      Hm          Em	
(men) æ' e' villt forelska' i
     A	        D
ei dame æ' ska' spør:


Chorus:
	
Vil du værra' me' mæ'
G      A
hjem i natt,
	            D
ska vi sov' i samme seng
    Hm
i natt,
	                 Em
æ' kainn' gi dæ' alt du træng'
    A	        D
i natt- hvis du tør!

	           G
Å' værra' me' mæ' hjem i
A	              D
natt, å'sov' i samme seng
    Hm
i natt
                          G
æ' kainn' gi dæ' alt du træng'
   A	          D
i natt - hvis du tør!


D           G
Kjære lille søte du
  A	        D
æ e' så glad i dæ,
     Hm 	    Em
skal vi dra hjæm te mæ
         A
å ta ei flaske vin?
             

    D	           G		
Men du ska' på et nach-spiel
         A	  D
og dem' træng' en gitarist,
  Hm 	          Em	
Så æ' bli me' å vente'
        A	
i nån' tima'
       D
fær æ' spør:



Chorus:
		
Vil du værra' me' mæ'
G      A
hjem i natt,
	            D
ska vi sov' i samme seng
    Hm
i natt,
	                 Em
æ' kainn' gi dæ' alt du træng'
    A	        D
i natt- hvis du tør!

	           G
Å' værra' me' mæ' hjem i
A	              D
natt, å'sov' i samme seng
    Hm
i natt
                          G
æ' kainn' gi dæ' alt du træng'
   A	          D
i natt - hvis du tør!


Stikk,
 C 		        D
Hvis æ' spør - Oh, oh, oh
           C	
og hvis du tør
        D
Oh, oh, oh oh,
G	                D        F#m
alt æ' vil, vil æ' me' dæ'
Em	
Hvis du vil bli me' mæ' i
 A
natt.
            
Hard to play? Try these video lessons and learn fast. | Correct




comments powered by Disqus
↑ Back to top | Tablatures and chords are parodies/interpretations of the original songs. You may use it for private study, scholarship, research or language learning purposes only