>
 >
Forelska I Lrern

Forelska I Lrern Guitar Tabs

The Kids - Forelska I Lrern chords, tabs, tablatures, lyrics

Guitar lessons | Add/correct | Request | Top 50 tabs Artists:  A B C D E F G H I J K L M N O P Q R S T U V W X Y Z 0-9

Forelska I Lrern Guitar Tabs – The Kids

CD, Sheet music, Poster

Do you like Forelska I Lrern? Share with your friends now
ChordsChords v2TabsTabs v2Ukulele
The Kids
Forelska i lærern

Intro:

       Em Em Em Em EmEm A     Em EmEm  Em EmEm A
|--------------------------------------------------|
|--------------------------------------------------|
|-----------------------2----------------------2---|
|------2--2-2---2--2-2--2-----2--2-2---2--2-2--2---|
|------2--2-2---2--2-2--0-----2--2-2---2--2-2--0---|
|------0--0-0---0--0-0--------0--0-0---0--0-0------|

Verse:


|---------------------------------------------------------------------------|
|---------------------------------------------------------------------------|
|---------------------------------------------------------------------------|
|-------------------2--2-2---2--2-2-----2--2-2---2--2-2-----------2---------|
|--2--2-2--2--2-2---0--0-0---0--0-0-----4--4-4---0--0-0---2--2-2--0--2--2-2-|
|--0--0-0--0--0-0-----------------------------------------0--0-0-----0--0-0-|

--------------------------------------------------------------------------|
--------------------------------------------------------------------------|
--------------------------------------------------------------------------|
--2--------------------2--2-2---2--2-2---2--2-2---2--2-2-----------2------|
--0---2--2-2--2--2-2---0--0-0---0--0-0---4--4-4---0--0-0---2--2-2--0-2-2-2|
------0--0-0--0--0-0---------------------------------------0--0-0----0-0-0|


Ref:
     C#m       Bm      Fiss   EmEmEmEmEm
|-----4---------5-------2--------------|
|-----5---------5-------2--------------|
|-----6---------6-------2--------------|
|-----6---------7-------4--------------|
|-----4---------7-------4-----2-2-2-2-2|
|-----4---------5-------2-----0-0-0-0-0|


Solo:

E|-----------------------------------------------------|
H|-----------------------------------------------------|
G|---------------4-6-6b8r6------------------4-6-6b8r6--|
D|-----------4-6------------------------4-6------------|
A|-4-4-4-6-7------------------4-4-4-6-7----------------|
E|-----------------------------------------------------|


E|-----------------------------------------------------|
H|---------------4-5-5b7r5------------------4-5-5b7r5--|
G|-----------4-6------------------------4-6------------|
D|-------4-6------------------------4-6----------------|
A|-7-7-7----------------------7-7-7--------------------|
E|-----------------------------------------------------|


E|----------------------------12p9--12p9---------------|
H|-----------------5-5b7r5----------------12p9-12p9----|
G|---------------4-------------------------------------|
D|-----------4-6---------------------------------------|
A|-4-4-4-6-7-------------------------------------------|
E|-----------------------------------------------------|


E|-----------------------------------------------------|
H|-----------------------------------------------------|
G|-11p9 11p9--------------------------------6-6-6------|
D|-----------11p9-11p9---------------------------------|
A|---------------------11p9-11p9-9p7-9p7-4--------4----|
E|-----------------------------------------------------|


E|------------------------------------------------------------|
H|------------------------------------------------------------|
G|---------------4-6-6b8r6--6-6-6------------------4-6-6b8r6--|
D|-----------4-6-------------------------------4-6------------|
A|-4-4-4-6-7----------------------4--4-4-4-6-7----------------|
E|------------------------------------------------------------|


E|------------------------------------|
H|--------------------------5-5b7r5---|
G|-6-6-6------------------4-----------|
D|--------------------4-6-------------|
A|-------4--4-4-4-6-7-----------------|
E|------------------------------------|





Comments


Popular The Kids tabs & chords
Forelska I Lrern Chords
Forelska I Lrern 1 Chords
There Will Be No Next Time Chords
Forelska I Lrern 2 Tabs
Vil Du Vrra Med M Hjem Tabs
Forelska I Lrern Ukulele
There Will Be No Next Time Ukulele


Song lyrics



↑ Back to top | Tablatures and chords are parodies/interpretations of the original songs. You may use it for private study, scholarship, research or language learning purposes only
© 2014 AZChords.com Contact us | Privacy policy | DMCA | Add/correct tabs | Request tabs | Top 50 tabs