» » »

Park Your Car Tabs (ver.1)

Artists:  A B C D E F G H I J K L M N O P Q R S T U V W X Y Z # 

Park Your Car Tabs (ver.1)

The Junior Varsity
Rating:
5/5 (1 vote)

Hard to play? Try these video lessons and learn fast.
                
Intro- Guitar 1 (Repeat until riff 1)
E|------------------|----------------------------------------------------------|
B|---------5-6------|------------5-6----------5-6---------5-6---------5-6------|
G|-------7-----5----|----------7-----5------7-----5-----7-----5-----7-----5----|
D|------------------|x4--------------------------------------------------------|
A|---5--------------|------8------------8------------5-----------5-------------|
E|------------------|----------------------------------------------------------|

Guitar 2 Listen to the song to figure out the timing
E|---------------------------------------------------------------|
B|---------------------------------------------------------------|
G|---------------------------------------------------------------|
D|---7------3------5------7------3------5------7------3------5---|
A|---5------1------3------5------1------3------5------1------3---|
E|---------------------------------------------------------------|



Riff 1- Guitar 1 Play 4 times
E|-----------------------------------------------------------------------------|
B|-----------------------------------------------------------------------------|
G|----------------------1010--99-----------------------------------------------|
D|---00--33--1010--77-------------1010--77-----0--3--0--5/7--77--55--33--00----|
A|-----------------------------------------------------------------------------|
E|-----------------------------------------------------------------------------|

continued
E|-------------------------------------------|
B|-------------------------------------------|
G|0---5---7---0---10----00---5---7---0---9---|
D|-------------------------------------------|
A|-------------------------------------------|
E|-------------------------------------------|

E|-------------------------------------------|
B|-------------------------------------------|
G|--00---5---7---0---10----00---5---7---0---9|
D|-------------------------------------------|
A|-------------------------------------------|
E|-------------------------------------------|

Verse- Guitar 2 (Guitar 1 fill missing)
E|--------------------------------------------|
B|--------------------------------------------|
G|--------------------------------------------|
D|-------77--------33--------55--------33-----|
A|---****55-x2-****11-x2-****33-x2-****11-x2--|
E|--------------------------------------------|

Pre Chorus- Repeat until the chorus

E|-------------|
B|-------------|
G|-------------|
D|5555555555555|
A|3333333333333|
E|-------------|



Chorus - Can't hear it properly, sorry. Just play a combination of the 3 power chrods.

Riff 1 again - Play 2 times

Verse again

Chorus again

Bridge - Guitar 2 After bass riff
E|-------------------------------|              |-----|
B|-------------------------------|              |-----|
G|-------------------------------|              |-----|
D|-------------------------------|x3 then       |-----|x13
A|----8--7--10--7---8---7--12----|              |-12--|
E|-------------------------------|              |-----|

Guitar 1
E|--------------------------------|
B|--------------------------------|
G|--------------------------------|
D|--------------------------------|
A|--7--8--7--8--7--8--7--8--7-----|
E|-----------------------------8--|


Outro

E|--55555555-33333333-8888-6666-33333333--3/5~~~~~~|
B|--55555555-33333333-8888-6666-33333333--3/5~~~~~~|
G|-------------------------------------------------|
D|-------------------------------------------------|
A|-------------------------------------------------|
E|-------------------------------------------------|
let the last note ring

Intro X4
Riff 1 X4
Verse
Pre Chorus (Repeat until chorus)
Chorus
Riff 1 x2
Verse
Chrous
Bridge
Outro
            
Hard to play? Try these video lessons and learn fast. | Correct




comments powered by Disqus
↑ Back to top | Tablatures and chords are parodies/interpretations of the original songs. You may use it for private study, scholarship, research or language learning purposes only